PrimaNota.ru - самый крупный в мире бесплатный архив песенных текстов, аккордов, табулатур и нот


Daniel Alomía Robles - El Condor Pasa - таба, видео

Регистрация Запомнить меня
Войти через:  Facebook Google Twitter Vk Yandex Mail.ru

Daniel Alomía Robles - El Condor Pasa - таба, видео

Печатать
Просмотров: 121
Авторы: Manuel Clavero Lopez Quiroga
Авторы музыки: Daniel Alomía Robles
Авторы текста: Jorge Milchberg
-------------------------------------------------------------------------------
                             El Condor Pasa (Peru) - Daniel Alomía Robles
-------------------------------------------------------------------------------
Tabbed by:
E-mail:

Tuning:

Chords:Em Gmaj Cmaj

I took this tab from https://www.youtube.com/watch?v=ZtZSLrLOnnI, so thanks to frankbatista4guitar
Now I just put the tab here, so if you're confused go the address and hear it for yourself
I like it so, you know... here you go

e|-10---12-10------------10--10--10--10--------------------------------------|
B|------------12-10---12---12--12--12---12-----------------------------------|
G|---------------------------------------------------------------------------|
D|---------------------------------------------------------------------------|
A|---------------------------------------------------------------------------|
E|-0------------------0------------------------------------------------------|

e|-5--5---7---5----5-7-5----3----3---3----3---3------------------------------|
B|--------------8--------8-----5---5---5----5---5----------------------------|
G|---------------------------------------------------------------------------|
D|---------------------------------------------------------------------------|
A|---------------------------------------------------------------------------|
E|----0---------------------0-----------------------0------------------------|

e||-------0-------0--2----3-2-3-5--------------------------------------------------||
B||o---0-------4-------------------------------------------------------------------||
G||--------------------------------------------------------------------------------||
D||--------------------------------------------------------------------------------||
A||o-------------------------------------------------------------------------------||
E||-------0------------------------------------------------------------------------||

e|---7-------------------------10--10--||
B|-------0-0-----0--------0------------|| After the first repeat continue to the measure after the
G|-------0-0-----0--------0------------|| repeat sign
D|-------0-0-----0---------------------||
A|------------2------------------------||
E|--(3)----------------3---------------||

e|---7-------------------------7--10------------------------------------------|
B|-------0-0-----0--------0---------------------------------------------------|
G|-------0-0-----0--------0----0----------------------------------------------|
D|-------0-0-----0------------------------------------------------------------|
A|------------2---------------------------------------------------------------|
E|--(3)----------------3------------------------------------------------------|

e|---7--------------------7--5--3--5p3--0-------------------------3-3-------------------||
B|-------0-0-----0-----------------------------0--0-----0----0------------0--0--------o-||
G|-------0-0-----0-----------------------------0--0-----0----0------------0--0----------||
D|-------0-0-----0-----------------------------2--2-----2-----------------2--2----------||
A|------------2--------------------------------2--2---2-------------------2--2--------o-||
E|--(3)----------------3--------------------0--------------0----------0---------0-------||

 cont.

e|---7------------------------10-12-10----------------------------------------------|
B|-------0-0-----0---------0---------------+12--------------------------------------|
G|-------0-0-----0---------0--0------------+12--------------------------------------|
D|-------0-0-----0------------------------------------------------------------------|
A|------------2---------------------------------------------------------------------|
E|--(3)----------------3------------------------------------------------------------|

e|---7--------------------7--5--3--5p3--0-------------------------3-3------------------|
B|-------0-0-----0-----------------------------0--0-----0----0------------0--0------0--|
G|-------0-0-----0-----------------------------0--0-----0----0------------0--0---------|
D|-------0-0-----0-----------------------------2--2-----2-----------------2--2---------|
A|------------2--------------------------------2--2---2-------------------2--2---------|
E|--(3)----------------3--------------------0--------------0----------0---------0------|

||----0------0------------------------||
||o---1---3-------3-------------------||
||----0-------------------------------||
||----2-------------------------------||
||o---3------3------------------------||
||------------------------------------||

---0------0--2---3p2--0---------------------------3-3---------------------|
-------3---------------------1--1--------1--------------------------------|
-----------------------------0--0--------0--------------------------------|
-----------------------------2--2--------2--------------------------------|
---3----------------------3------------------3----------------------------|
--------------------------------------3-----------------------------------|

---0--------------------------------------0---------------------------------------||
-------3-----0--0--------0--0---------3--------3p0-----0--0------0------0--o------||
-------------0--0--------0--0--------------------------0--0------0----------------||
-------------0--0----2---0--0--------------------------0--0------0----------------||
-------------------------------------------------------------2-------------o------||
-------3--------------------------3------------------3---------------3------------||

--7---5/3--0---|
---------------|
---------------|
---------------|
---------------|
-----------0---|

************************************

| /   slide up
| \   slide down
| h   hammer-on
| p   pull-off
| ~   vibrato
| +   harmonic
| x   Mute note
| b   Bend
| pb  Pre-bend
| br  Bend release
| pbr Pre-bend release
| brb Bend release bend

************************************
Добавлено: 19.12.2015
Другие материалы по этой песне:
  • Аккорды и текст

Страница создана 19.12.2015
http://primanota.ru/daniel-alomia-robles/el-condor-pasa-chords.htm
Привет, Гость.
Предлагаем пройти революционный курс по гитаре.
Подарок от PrimaNota.Ru, забирай!