PrimaNota.ru - самый крупный в мире бесплатный архив песенных текстов, аккордов, табулатур и нот


Danie Geimer - House Of The Rising Sun - таба, видео

Регистрация Запомнить меня
Войти через:  Facebook Google Twitter Vk Yandex Mail.ru

Danie Geimer - House Of The Rising Sun - таба, видео

Печатать
Просмотров: 75
-------------------------------------------------------------------------------
                             HOUSE OF THE RISING SUN - Danie Geimer
-------------------------------------------------------------------------------
Tabbed by: alexmcnamee61
So Danie Geimer did a cover of this for her X Factor audition. I am not a fan of the show, though stumbled 
across this on YouTube. Much better than I thought it would be.

Tuning: EADGBE 

Capo on 3, though doesn't sound too off being on 2.

On places with an E*, it means you can either play regular E or E7. E7 sounds better following the E, though
I think two E chords are what's played. Notes relative to capo

(EDIT: Just before she sings, there's a quiet little arpeggio type thing)

       (Am)
e|--------------0--------0--------------------------------------|
B|--------------------------------------------------------------|
G|-----------2-----2--------------------------------------------|
D|--------2-----------2-----------------------------------------|
A|-----0--------------------------------------------------------|
E|--------------------------------------------------------------|

There is     a house    in   New    Orleans                  They
     (Am)        (C)         (D)        (F)
e|-----0----------0-----------2----------1----------------------|
B|-----1----------1-----------3----------1----------------------|
G|-----2----------0-----------2----------2----------------------|
D|-----2----------2-----------0----------3----------------------|
A|-----0----------3----------------------3----------------------|
E|--------------------------------------------------------------|

   call     the ris     ing    sun                           and it's 
      (Am)       (C)         (E)        (E*)     
e|-----0----------0-----------0----------0----------------------|
B|-----1----------1-----------0----------0----------------------|
G|-----2----------0-----------1----------1----------------------|
D|-----2----------2-----------2----------2----------------------|
A|-----0----------3-----------2----------2----------------------|
E|--------------------------------------------------------------|

   been       the ruin    of many a poor boy
        (Am)         (C)        (D)         (F)
e|--------------------------------------------------------------|
B|--------------------------------------------------------------|
G|-----------2-----------0-----------2-----------2--------------|
D|--------2-----------2-----------0-----------3-----------------|
A|-----0-----------3-----------0-----------3--------------------|
E|--------------------------------------------------------------|

 and God            I know           I'm one
        (Am)         (E)                (Am)         (E)
e|-------------------------------------------------0--0---------|
B|----------------------------------------------1-----0---------|
G|-----------2--------1----------------------2--------1---------|
D|--------2-----------2-------------------2-----------2---------|
A|-----0--------------2----------------0--------------2---------|
E|--------------------------------------------------------------|

 Oh   mother                             tell your children
     (Am)                  (C)                   (D)           (F)
e|--------------0-------------------0-----------------2-----------------1-------|
B|------------------------------------------------------------------------------|
G|-----------2-----2------------0------0-----------2-----2-----------2----2-----|
D|--------2-----------2------2------------2-----0-----------0-----3----------3--|
A|-----0------------------3-------------------0----------------3----------------|
E|------------------------------------------------------------------------------|
  
      not to do      what I             have done
       (Am)             (C)                (E)               (E*)
e|--------------0-------------------0-----------------0-----------------0-------|
B|------------------------------------------------------------------------------|
G|-----------2-----2------------0------0-----------1-----1-----------1----1-----|
D|--------2-----------2------2------------2-----2-----------2-----2----------2--|
A|-----0------------------3-------------------2----------------2----------------|
E|------------------------------------------------------------------------------|

 Spend                  your life          in sin          and misery
     (Am)                  (C)                   (D)           (F)
e|--------------0-------------------0-----------------2-----------------1-------|
B|------------------------------------------------------------------------------|
G|-----------2-----2------------0------0-----------2-----2-----------2----2-----|
D|--------2-----------2------2------------2-----0-----------0-----3----------3--|
A|-----0------------------3-------------------0----------------3----------------|
E|------------------------------------------------------------------------------|

in the house        of the rising          sun             
        (Am)             (E)                (Am)         (E)
e|--------------0-----------------0----------------0---------0---------|
B|-----------------------------------------------------------0---------|
G|-----------2-----2-----------1-----2-----------2----2------1---------|
D|--------2-----------2-----2-----------2-----2----------2---2---------|
A|-----0-----------------2-----------------0-----------------2---------|
E|---------------------------------------------------------------------|

 Well there is               a house            in   New Orleans
     (Am)                  (C)                   (D)           (F)
e|--------------0-------------------0-----------------2-----------------1-------|
B|------------------------------------------------------------------------------|
G|-----------2-----2------------0------0-----------2-----2-----------2----2-----|
D|--------2-----------2------2------------2-----0-----------0-----3----------3--|
A|-----0------------------3-------------------0----------------3----------------|
E|------------------------------------------------------------------------------|
  
      they call      the rising            sun
       (Am)             (C)                (E)               (E*)
e|--------------0-------------------0-----------------0-----------------0-------|
B|------------------------------------------------------------------------------|
G|-----------2-----2------------0------0-----------1-----1-----------1----1-----|
D|--------2-----------2------2------------2-----2-----------2-----2----------2--|
A|-----0------------------3-------------------2----------------2----------------|
E|------------------------------------------------------------------------------|

It's been        the ruin                 of  many a poor boy
     (Am)                  (C)                   (D)           (F)
e|--------------0-------------------0-----------------2-----------------1-------|
B|------------------------------------------------------------------------------|
G|-----------2-----2------------0------0-----------2-----2-----------2----2-----|
D|--------2-----------2------2------------2-----0-----------0-----3----------3--|
A|-----0------------------3-------------------0----------------3----------------|
E|------------------------------------------------------------------------------|

(slow down here)
 and God            I know           I'm one
        (Am)         (E)                (Am)         (Am)
e|--------0-----------0----------------------------0--0---------|
B|--------0-----------0-------------------------1-----1---------|
G|--------1-----------1----------------------2--------2---------|
D|--------2-----------2-------------------2-----------2---------|
A|--------2-----------2----------------0--------------0---------|
E|--------------------------------------------------------------|

seems mostly correct to my ear!
Добавлено: 04.12.2015
Другие материалы по этой песне:
  • Аккорды и текст

Страница создана 04.12.2015
http://primanota.ru/danie-geimer/house-of-rising-sun-chords.htm
Привет, Гость.
Предлагаем пройти революционный курс по гитаре.
Подарок от PrimaNota.Ru, забирай!