PrimaNota.ru - самый крупный в мире бесплатный архив песенных текстов, аккордов, табулатур и нот


Dani Shay - Girl Or Boy - таба, видео

Регистрация Запомнить меня
Войти через:  Facebook Google Twitter Vk Yandex Mail.ru

Dani Shay - Girl Or Boy - таба, видео

Печатать
Просмотров: 89
I've learned this song by watching the video that she uploaded on youtube, so it's not 100% correct.
I did my best and I want to share it with you in case you want to play it too :)
AAAAAANDDDDD English is not my native language and I don't know what is it call when you hit the strings
while you're playing, so I called it "tap" ╮(─▽─)╭ Enjoy (~ ̄▽ ̄)~

-------------------------------------------------------------------------------
                             Girl or boy - Dani Shay
-------------------------------------------------------------------------------
Tabbed by: itsSyko
E-mail: ana_2.006@hotmail.com

Tuning: standard

e|---------------------------------------------------------------------------|
B|---------------------------------------------------------------------------|
G|---------------------------------------------------------------------------|
D|-------------------11---9--9--11------11-----------------------------------|
A|--------11---9--9-------------9----9------9--------------------------------|
E|--9--9---------------------------------------------------------------------|

e|---------------------------------------------------------------------------|
B|---------------------------------------------------------------------------|
G|---------------------------------------------------------------------------|
D|-------------------11---9--9--11-------------------------------------------|
A|--------11---9--9-------------9--------------------------------------------|
E|--9--9---------------------------------------------------------------------|

Is that a girl or is that boy...
e|---------------------------------------------------------------------------|
B|---------------------------------------------------------------------------|
G|------------------------------11-------------------------------------------|
D|-------------------11---9--9-------------11--------------------------------| x4
A|--------11---9--9------------------9--9------------------------------------|
E|--9--9---------------------------------------------------------------------|

or boy...
e|---------------------------------------------------------------------------|
B|---------------------------------------------------------------------------|
G|---------------------------------------------------------------------------|
D|--------------------------9--9--11--tap------------------------------------|
A|--------------9--9--tap----------9-----------------------------------------|
E|--9--9--tap----------------------------------------------------------------|

Girl or boy
e|---------------------------------------------------------------------------|
B|---------------------------------------------------------------------------|
G|---------------------------------------------------------------------------|
D|--------------------------9--9--11------11---------------------------------|
A|--------------9--9--tap---------9----9------9------------------------------|
E|--9--9--tap----------------------------------------------------------------|

Is that a lady...
e|---------------------------------------------------------------------------|
B|---------------------------------------------------------------------------|
G|------------------------------11-------------------------------------------|
D|-------------------11---9--9-------------11--------------------------------| x3
A|--------11---9--9------------------9--9------------------------------------|
E|--9--9---------------------------------------------------------------------|

I am not a lesbian...
e|---------------------------------------------------------------------------|
B|---------------------------------------------------------------------------|
G|------------------------------11-------------------------------------------|
D|-------------------11---9--9-------9--9--tap-------------------------------|
A|--------11---9--9----------------------------------------------------------|
E|--9--9---------------------------------------------------------------------|

or boy...
e|---------------------------------------------------------------------------|
B|---------------------------------------------------------------------------|
G|---------------------------------------------------------------------------|
D|--------------------------9--9--11------11---------------------------------|
A|--------------9--9--tap---------9----9------9------------------------------|
E|--9--9--tap----------------------------------------------------------------|

Girl or boy
e|---------------------------------------------------------------------------|
B|---------------------------------------------------------------------------|
G|---------------------------------------------------------------------------|
D|-------------------11---9--9--11------11-----------------------------------|
A|--------11---9--9-------------9----9---------------------------------------|
E|--9--9---------------------------------------------------------------------|

But life is not...
e|---------------------------------------------------------------------------|
B|---------------------------------------------------------------------------|
G|------------------------------11-------------------------------------------|
D|-------------------11---9--9-------------11--------------------------------|
A|--------11---9--9------------------9--9------------------------------------|
E|--9--9---------------------------------------------------------------------|

They grow to be...
e|---------------------------------------------------------------------------|
B|---------------------------------------------------------------------------|
G|------------------------------11-------------------------------------------|
D|-------------------11---9--9-----------------------------------------------|
A|--------11---9--9------------------9--9--tap-------------------------------|
E|--9--9---------------------------------------------------------------------|

And I hope we can...
e|---------------------------------------------------------------------------|
B|---------------------------------------------------------------------------|
G|---------------------------------------------------------------------------|
D|--------------------------9--9--tap----------------------------------------| x2
A|--------------9--9--tap---------------9--9--tap----------------------------|
E|--9--9--tap----------------------------------------------------------------|

Don't be a pussy...
e|---------------------------------------------------------------------------|
B|---------------------------------------------------------------------------|
G|--------------------11--11-------------------------------------------------|
D|-----------11--11---9---9---11--11-----------------------------------------| x2
A|--11--11---9---9------------9---9------------------------------------------|
E|--9---9--------------------------------------------------------------------|

Who decides it...
e|---------------------------------------------------------------------------|
B|---------------------------------------------------------------------------|
G|---------------------------------------------------------------------------|
D|-------------------11---9--9------11---------------------------------------|
A|--------11---9--9--------------9-------------------------------------------|
E|--9--9---------------------------------------------------------------------|

Do you or...
e|---------------------------------------------------------------------------|
B|---------------------------------------------------------------------------|
G|------------------------------11-------------------------------------------|
D|-------------------11---9--9-------------11--------------------------------| x2
A|--------11---9--9------------------9--9------------------------------------|
E|--9--9---------------------------------------------------------------------|

Who decides it...
e|---------------------------------------------------------------------------|
B|---------------------------------------------------------------------------|
G|---------------------------------------------------------------------------|
D|-------------------11---9--9--11------11-----------------------------------|
A|--------11---9--9-------------9----9------9--------------------------------|
E|--9--9---------------------------------------------------------------------|

Do you or I...
e|---------------------------------------------------------------------------|
B|---------------------------------------------------------------------------|
G|------------------------------11-------------------------------------------|
D|-------------------11---9--9-------------11--------------------------------|
A|--------11---9--9------------------9--9------------------------------------|
E|--9--9---------------------------------------------------------------------|

e|---------------------------------------------------------------------------|
B|---------------------------------------------------------------------------|
G|---------------------------------------------------------------------------|
D|-------------------11---9--9--11------11-----------------------------------|
A|--------11---9--9-------------9----9---------------------------------------|
E|--9--9---------------------------------------------------------------------|

Girl or boy...
e|---------------------------------------------------------------------------|
B|---------------------------------------------------------------------------|
G|------------------------------11-------------------------------------------|
D|-------------------11---9--9-------------11--------------------------------|
A|--------11---9--9------------------9--9------------------------------------|
E|--9--9---------------------------------------------------------------------|

e|---------------------------------------------------------------------------|
B|---------------------------------------------------------------------------|
G|---------------------------------------------------------------------------|
D|-------------------11---9--9--11------11-----------------------------------|
A|--------11---9--9-------------9----9---------------------------------------|
E|--9--9---------------------------------------------------------------------|

e|---------------------------------------------------------------------------|
B|---------------------------------------------------------------------------|
G|---------------------------------------------------------------------------|
D|-------------------------9--9--11------------------------------------------|
A|--------11---9--9--tap---------9-------------------------------------------|
E|--9--9---------------------------------------------------------------------|

Добавлено: 17.12.2015
Другие материалы по этой песне:
  • Аккорды и текст

Страница создана 17.12.2015
http://primanota.ru/dani-shay/girl-or-boy-chords.htm
Привет, Гость.
Предлагаем пройти революционный курс по гитаре.
Подарок от PrimaNota.Ru, забирай!