PrimaNota.ru - самый крупный в мире бесплатный архив песенных текстов, аккордов, табулатур и нот


Danger Radio - So Far So Gone - таба, видео

Регистрация Запомнить меня
Войти через:  Facebook Google Twitter Vk Yandex Mail.ru

Danger Radio - So Far So Gone - таба, видео

Печатать
Просмотров: 133
Уроки эстрадного вокала в Санкт-Петербурге
I got most of the song down, there are a couple parts i still gotta figure out, but 
else I did by ear, so far everything sounds perfect, so you should have no problem, enjoy! 
I highly suggest you listen to the song for rhythm and timing, it's a bit tricky!


Intro
E----------------------------------------------------------------------------|
B----------------------------------------------------------------------------|
G---------------------------3-2-3-3-2-3-3-2-3-3-2-3--7-5-7-7-5-7-7-5-7-7-5-7-|
D--5-3-5-5-3-5-5-3-5-5-3-5---------------------------------------------------|
A----------------------------------------------------------------------------|
E----------------------------------------------------------------------------|


E-------------------------------------|
B-------------------------------------|
G-12-10-12-12-10-12-12-10-12-12-10-12-|
D-------------------------------------|
A-------------------------------------|
E-------------------------------------|

Verse
E-----------------------------------------|
B-----------------------------------------|
G---------------8-8-7-7-7-5-8-8-7-7-6~----|
D--8-8-7-7-7-5----------------------------|
A-----------------------------------------|
E-----------------------------------------|

Pre Chorus
E-------------|
B-------------|
G-------------|
D-3-3-3-3-3---|
A-3-3-3-3-3---|
E-1-1-1-1-1---|

Chorus
E-------------------|
B-------------------|
G-------5--8--7-----|
D-5--3--5--8--7-----|
A-5--3--3--6--5-----|
E-3--1--x-----------|

E--------------------|
B--------------------|
G-----5--------------|
D-5-3-5--0-0-1-1-0---|
A-5-3-3--------------|
E-3-1----------------|

Pre Verse
E-----------------------| 1:12
B-----------------------|
G-----------------------|
D-9-9-8-8-8-5-----------|
A-----------------------|
E-----------------------|


Go back to verse, chorus then to intro.

Bridge
E-----------------------------------------------------------------| 2:07
B-----------------------------------------------------------------|
G-----------------------------------------------------------------|
D-----------------------------------------------------------------|
A-------6-5-3-----------------6-5-3--------------6-5-3------------|
E-3-5-6-------6-5-3-2~--3-5-6-------6-5-3--3-5-6-------6-5-3-2~---|

E-----------------|
B-----------------|
G-8--5------------|
D-x--5--5--3------|
A-6--3--5--3------|
E-------3--1------|

Chorus, Pre Verse

I'll tab the rest of this song out soon, thanks for lookin, please rate and comment!!
Добавлено: 03.06.2012
Другие материалы по этой песне:

Страница создана 08.03.2012
http://primanota.ru/danger-radio/so-far-so-gone-chords.htm
Привет, Гость.
Предлагаем пройти революционный курс по гитаре.
Подарок от PrimaNota.Ru, забирай!