PrimaNota.ru - самый крупный в мире бесплатный архив песенных текстов, аккордов, табулатур и нот


Danger Doom - No Names Black Debbie - текст песни, бас-таба, видео

Регистрация Запомнить меня
Войти через:  Facebook Google Twitter Vk Yandex Mail.ru

Danger Doom - No Names Black Debbie - текст песни, бас-таба, видео

Печатать
Просмотров: 164
No Names (Black Debbie)

---------------------------------|
---------------------------------|
-2----2--5--2--5--9--8--7--5-2-5-|
---------------------------------|

---------------------------------|
---------------------------------|
-2----2--5--2--5--9--8--7--5-2-5-|
---------------------------------|

---------------------------------|
-2----2--5--2--5--9--8--7--5-2-5-|
---------------------------------|
---------------------------------|

---------------------------------|
-2----2--5--2--5--9--8--7--5-2-5-|
---------------------------------|
---------------------------------|
Добавлено: 27.03.2012
Вам также может быть интересно:
Другие материалы по этой песне:
  • Аккорды и текст

Страница создана 27.03.2012
http://primanota.ru/danger-doom/no-names-black-debbie-chords.htm
Привет, Гость.
Предлагаем пройти революционный курс по гитаре.
Подарок от PrimaNota.Ru, забирай!