PrimaNota.ru - самый крупный в мире бесплатный архив песенных текстов, аккордов, табулатур и нот


Danger Doom - Benzie Box - текст песни, бас-таба, видео

Регистрация Запомнить меня
Войти через:  Facebook Google Twitter Vk Yandex Mail.ru

Danger Doom - Benzie Box - текст песни, бас-таба, видео

Печатать
Просмотров: 140
Main Part
------------------------|
------------------------|
-0--3-5--7---7-7-7-7----|
------------------------|

------------------------|
------------------------|
-0--3-5--7---7-7-7-7----|
------------------------|


-------------|
------9------|  x4
-7-10---10---|
-------------|

or

-----4---|
---5---5-|
-7-------|
---------|
Добавлено: 25.06.2012
Другие материалы по этой песне:
  • Аккорды и текст

Страница создана 18.03.2012
http://primanota.ru/danger-doom/benzie-box-chords.htm
Привет, Гость.
Предлагаем пройти революционный курс по гитаре.
Подарок от PrimaNota.Ru, забирай!