PrimaNota.ru - самый крупный в мире бесплатный архив песенных текстов, аккордов, табулатур и нот


Dangelo - Spanish Joint - текст песни, бас-таба, видео

Регистрация Запомнить меня
Войти через:  Facebook Google Twitter Vk Yandex Mail.ru

Dangelo - Spanish Joint - текст песни, бас-таба, видео

Печатать
Просмотров: 53
Авторы текста: D’Angelo
                                     Spanish Joint
                                        D'Angelo
                                    

                                                                       D'Angelo
Bass                                                               Roy Hargrove
(8 string guitar arr. for bass)

As played by Charlie Hunter

In 2/2

Intro
                                                                         x3
||------------------|-----------------|-----------------|------------------||
||o-----------5---3-|(3)--------------|-----------------|-----------------o||
||o-3-----6---------|-----------------|-----------------|-----------------o||
||------------------|-----------------|-----------------|------------------||
    Q.    Q   Q S S   W                 W                 W
                                                                         x4
||------------------|-----------------|-----------------|------------------||
||o-----------5---3-|(3)--------------|-----------5---3-|(3)--------------o||
||o-3-----6---------|-----------------|-3-----6---------|-----------------o||
||------------------|-----------------|-----------------|------------------||
    Q.    Q   Q S S   W                 Q.    Q   Q S S   W

|-----------------|-----------------|
|-----------------|-----------------|
|---------------3-|---3-------------|
|-----------------|-----------------|
  Q.    Q   Q S S   E Q   E H

Verse 1

|-----------------|-----------------|-----------------|-----------------|
|-----------5---3-|(3)--------------|-----------5---3-|(3)--------------|
|-3-----6---------|-----------------|-3-----6---------|-----------------|
|-----------------|-----------------|-----------------|-----------------|
  Q.    Q   Q S S   W                 Q.    Q   Q S S   W

|-----------------|-----------------|-----------------|-----------------|
|-----------5---3-|(3)--------------|-----------5---3-|(3)--------------|
|-3-----6---------|-----------------|-3-----6---------|-----------------|
|-----------------|-----------------|-----------------|-----------------|
  Q.    Q   Q S S   W                 Q.    Q   Q S S   W

|-----------------|-----------------|-----------------|-----------------|
|-------3---1---3-|(3)----------5---|-6---------6---5-|(5)--------------|
|-1---------------|-----------------|-------6---------|-----------------|
|-----------------|-----------------|-----------------|-----------------|
  Q.    Q   Q S S   H.          Q     Q.    Q   Q S S   H.          Q

|-----------------|-----------------|-----------------|-----------------|
|-----------5---3-|(3)--------------|-----------------|-----------------|
|-3-----6---------|-----------------|-----------------|-----------------|
|-----------------|-----------------|-----------------|---3-------------|
  Q.    Q   Q S S   W                 W                 E Q   E H

Verse 2

|-----------------|-----------------|-----------------|-----------------|
|-----------5---3-|(3)--------------|-----------5---3-|(3)--------------|
|-3-----6---------|-----------------|-3-----6---------|-----------------|
|-----------------|-----------------|-----------------|-----------------|
  Q.    Q   Q S S   W                 Q.    Q   Q S S   W

|-----------------|-----------------|-----------------|-----------------|
|-----------5---3-|(3)--------------|-----------5---3-|(3)--------------|
|-3-----6---------|-----------------|-3-----6---------|-----------------|
|-----------------|-----------------|-----------------|-----------------|
  Q.    Q   Q S S   W                 Q.    Q   Q S S   W

|-----------------|-----------------|-----------------|-----------------|
|-----------1---3-|(3)--------------|-6---------6---5-|(5)--------------|
|-1-----3---------|-----------------|-------6---------|-----------------|
|-----------------|-------------3---|-----------------|-----------------|
  Q.    Q   Q S S   H.          Q     Q.    Q   Q S S   H.          Q

|-----------------|-----------------|-----------------|-----------------|
|-----------5---3-|(3)--------------|-----------------|-----------------|
|-3-----6---------|-------3---1-----|-----------------|-----------------|
|-----------------|---------------4-|(4)--------------|---3-------------|
  Q.    Q   Q S S   Q.    Q   Q S S   Q   Q   H         E Q   E H

Bridge 1

|-----------4-----|---4---5---------|-----------5---5-|-7---5-----------|
|-----3-6-------6-|(6)--------------|-------5---------|-------5---------|
|-4---------------|-----------5-----|-3---6-----------|---------3-------|
|-----------------|-----------------|-----------------|-----------0-3---|
  Q   E Q   Q   E   E Q   Q   Q   E   Q   E Q   Q   E   Q S E S S S E Q

|-----------4-----|---4---7\6-------|---------------3-|(3)----------5---|
|-----3-6-------6-|(6)--------------|-------5---4-3---|-------3-5-------|
|-4---------------|-----------5-----|-3---6-----------|-----------------|
|-----------------|-----------------|-----------------|-----------------|
  Q   E Q   Q   E   E Q   S E.Q   E   Q   E Q   Q   E   Q   E E Q   Q

|-----------4-----|---4---6---------|-----------------|-----------------|
|-----3-6-------5-|(5)--------------|-----1-3---2---1-|(1)------1-0-----|
|-4---------------|-----------------|-3---------------|-------------1---|
|-----------------|-----------------|-----------------|-----------------|
  Q   E Q   Q   E   E Q   Q.   Q      Q   E Q   Q   E   Q   Q   E.S Q

|-----1-1---1---0-|(0)--------------|-----------------|-----------------|
|-----------------|-----------------|-----------5---3-|(3)--------------|
|-3/--------------|-----------------|-3-----6---------|-----------------|
|-----------------|-----------------|-----------------|-----------------|
  Q   E Q   Q   E   W                 Q.    Q   Q S S   W

|-----------------|-----------------|-----------------|-----------------|
|-----------------|-----------------|-----------5---3-|(3)--------------|
|-----------------|-----------------|-3-----6---------|-----------------|
|-----------------|-----------------|-----------------|-----------------|
  W                 W                 Q.    Q   Q S S   W

|-----------------|-----------------|
|-----------------|-----------------|
|-----------------|-----------------|
|-----------------|-----------------|
  W                 W 

Interlude 1

                                                                         x4
||------------------|-----------------|-----------------|------------------||
||o-----------5---3-|(3)--------------|-----------5---3-|(3)--------------o||
||o-3-----6---------|-----------------|-3-----6---------|-----------------o||
||------------------|-----------------|-----------------|------------------||
    Q.    Q   Q S S   W                 Q.    Q   Q S S   W

|-----------------|-----------------|
|-----------------|-----------------|
|-----------------|-----------------|
|-----------------|---3-------------|
  W                 E Q   E H

Verse 3

|-----------------|-----------------|-----------------|-----------------|
|-----------5---3-|(3)--------------|-----------5---3-|(3)--------------|
|-3-----6---------|-----------------|-3-----6---------|-----------------|
|-----------------|-----------------|-----------------|-----------------|
  Q.    Q   Q S S   W                 Q.    Q   Q S S   W

|-----------------|-----------------|-----------------|-----------------|
|-----------5---3-|(3)--------------|-----------5---3-|(3)--------------|
|-3-----6---------|-----------------|-3-----6---------|-----------------|
|-----------------|-----------------|-----------------|-----------------|
  Q.    Q   Q S S   W                 Q.    Q   Q S S   W

|-----------------|-----------------|-----------------|-----------------|
|-------0---1---3-|(3)----------5---|-6---------6-----|-----------------|
|-1---------------|-----------------|-------6---------|-----------------|
|-----------------|-----------------|---------------3-|(3)--------------|
  Q.    Q   Q S S   H.          Q     Q.    Q   Q S S   H.          Q

|-----------------|-----------------|-----------------|-----------------|
|-----------5---3-|(3)--------------|-----------------|-----------------|
|-3-----6---------|-----------------|-----------------|-----------------|
|-----------------|---------------3-|(3)--------------|---3-------------|
  Q.    Q   Q S S   H       Q   E.S   E E Q   H         E Q   E H

Verse 4

|-----------------|-----------------|-----------------|-----------------|
|-----------5---3-|(3)--------------|-----------5---3-|(3)--------------|
|-3-----6---------|-----------------|-3-----6---------|-----------------|
|-----------------|-----------------|-----------------|-----------------|
  Q.    Q   Q S S   W                 Q.    Q   Q S S   W

|-----------------|-----------------|-----------------|-----------------|
|-----------5---3-|(3)--------------|-----------5---3-|(3)--------------|
|-3-----6---------|-----------------|-3-----6---------|-----------------|
|-----------------|-----------------|-----------------|-----------------|
  Q.    Q   Q S S   W                 Q.    Q   Q S S   W

|-----------------|-----------------|-----------------|-----------------|
|-------1---2---3-|(3)--------------|-6---------6---5-|(5)--------------|
|-1---------------|-----------------|-------6---------|-----------------|
|-----------------|-------------3---|-----------------|-----------------|
  Q.    Q   Q S S   H.          Q     Q.    Q   Q S S   H.          Q

|-----------------|-----------------|-----------------|-----------------|
|-----------5-----|---------------5-|(5)--------------|-----------------|
|-3-----6---------|-----------------|-----------------|-----------------|
|-----------------|-----------------|---3-------------|---3-------------|
  Q.    Q   Q S S   H       Q   E.S   E E Q   H         E Q   E H

Bridge 2

|-----------4-----|---4---6---------|-------3--/7---5-|(5)3---3-2-0-2---|
|-----3-6-------6-|(6)--------------|-----5-----------|-----5-----------|
|-4---------------|-----------5-----|-3---------------|-----------------|
|-----------------|-----------------|-----------------|-----------------|
  Q   E Q   Q   E   E Q   Q   Q   E   Q   E Q   Q   E   E E E E E E E E

|-----------4-----|---4---6---------|-------3---5---5/|-7-------------5---|
|-----3-6-------6-|(6)--------------|-----5-----------|---------3-5-------|
|-4---------------|---------4-5-4---|-3---------------|-------------------|
|-----------------|-----------------|-----------------|-------------------|
  Q   E Q   Q   E   E Q   E E E Q     Q   E Q   Q   E   Q   E E E  Q   Q

|-----------4-----|---4-----6-------|-----------------|-------3---1-0---|
|-----3-6-------6-|(6)----6---------|-----1-3---2---1-|(1)------3-------|
|-4---------------|-------------5---|-3---------------|-----------------|
|-----------------|-----------------|-----------------|-----------------|
  Q   E Q   Q   E   E Q   E Q   Q     Q   E Q   Q   E   Q   E E E E Q

|-1-----1---1---0-|(0)--------------|-----------------|-----------------|
|-----------------|-----------------|-----------5---3-|(3)--------------|
|-----------------|-----------------|-3-----6---------|-----------------|
|-----------------|-----------------|-----------------|-----------------|
  Q.    Q   Q   E   W                 Q.    Q   Q S S   W

|-----------------|-----------------|-----------------|-----------------|
|-----------------|-----------------|-----------5---3-|(3)--------------|
|-----------------|-----------------|-3-----6---------|-----------------|
|-----------------|-----------------|-----------------|-----------------|
  W                 W                 Q.    Q   Q S S   W

|-----------------|-----------------|
|-----------------|-----------------|
|-----------------|-----------------|
|-----------------|-----------------|
  W                 W 

Solo Part 1

|-----------------|-----------------|-----------------|-----------------|
|-----------5---3-|(3)--------------|-----------5---3-|(3)--------------|
|-3-----6---------|-----------------|-3-----6---------|-----------------|
|-----------------|-----------------|-----------------|-----------------|
  Q.    Q   Q S S   W                 Q.    Q   Q S S   W

|-----------------|-----------------|-----------------|-----------------|
|-----------5---3-|(3)--------------|-----------5---3-|(3)--------------|
|-3-----6---------|-----------------|-3-----6---------|-----------------|
|-----------------|-----------------|-----------------|-----------------|
  Q.    Q   Q S S   W                 Q.    Q   Q S S   W

|-----------------|-----------------|-----------------|-----------------|
|-----------1-----|(1)--------------|-----------------|-6---------------|
|-1-----4---------|-----------------|-------5---------|-------4-----5-6-|
|-----------------|-----------------|-4---------------|-----------------|
  Q.    Q   Q.      W                 Q.    H       E   Q.    Q.    E E

|-----------------|-----------------|-----------------|-----------------|
|-------------4---|-----------------|-----------------|-----------------|
|-3-----3---------|-------3-----1---|-----------------|-----------------|
|-----------------|-3---3-----------|-3---------------|---3-------------|
  Q.    Q.    Q     Q   E Q.    Q     E E Q   H         E Q   E H

Solo Part 2

|-----------------|-----------------|-----------------|-----------------|
|-------8-----5---|(5)--------------|-------5-----5---|(5)--------------|
|-5---------------|-----------------|-5---------------|-----------------|
|-----------------|-----------------|-----------------|-----------------|
  Q.    Q.    Q     W                 Q.    Q.    Q     W

|-----------------|-----------------|-----------------|-----------------|
|-------7-----5---|(5)------5-------|-------7-----5---|(5)--------------|
|-5---------------|-----------------|-5---------------|-----------------|
|-----------------|-----------------|-----------------|-----------------|
  Q.    Q.    Q     H       H         Q.    Q.    Q     W

|-----------------|-----------------|-----------------|-----------------|
|-------1-----3---|(3)--------------|-8---------------|-----------------|
|-3---------------|---------3---3---|-----------------|-------------5-6-|
|-----------------|-----------------|-------------6-5-|-5-----5---------|
  Q.    Q.    Q     H       Q   Q     Q.    Q.    Q     Q.    Q.    E E

|-----------------|-----------------|-----------------|-----------------|
|-----------------|-----------------|-----------------|-----------------|
|-5-----5-5---5---|-----------------|-5---------------|-----------------|
|-----------------|-5---5---5---5---|-----------------|---5-------------|
  Q.    E Q   Q     Q   Q   Q   Q     E E   H.          E Q   E H

Bridge 3

|-----------6-----|-------6-8-------|-----------------|-----------------|
|-----5-8---------|-----7-----------|-------5---7---7-|-8-------10------|
|-6-------------6-|(6)----------7---|-5---8-----------|-------------7---|
|-----------------|-----------------|-----------------|-----------------|
  Q   E Q   Q   E   Q   E E Q   Q     Q   E Q   Q   E   H       Q   Q

|-----------6-----|---6---7---8-----|----------/9---7-|(7)----------7---|
|-----5-8-------7-|-----------------|-------5---------|---------7-------|
|-6---------------|-------------6---|-5---8-----------|-----------------|
|-----------------|-----------------|-----------------|-----1-----------|
  Q   E Q   Q   E   E Q   Q   E Q     Q   E Q   Q   E   Q   Q   Q   Q

|-----------6-----|---6-----8-------|-----------------|---------10------|
|-----5-8-------7-|-----------------|-----3-5---4---3-|(3)----------10--|
|-6---------------|-------6-----7---|-5---------------|-----------------|
|-----------------|-----------------|-----------------|-----------------|
  Q   E Q   Q   E   E Q   E Q   Q     Q   E Q   Q   E   Q   Q   Q   Q


|-----------------|-----------------|-----------------|-----------------|
|-8-----8---8---7-|(7)----7-7-------|-------5---6---7-|(7)--------------|
|-----------------|-----------------|-5---5-----------|-----------------|
|-----------------|-------------5---|-----------------|-----------------|
  Q.    Q   Q   E   Q.    E Q   Q     Q   E Q   Q S S   W

Bridge 4

|-----------6-----|---6---7-8-------|-----------5---7-|(7)--------------|
|-----5-8-------7-|(7)--------------|-------7---------|-------7-5-7-----|
|-6---------------|-------------7---|-5---8-----------|-------------8---|
|-----------------|-----------------|-----------------|-----------------|
  Q   E Q   Q   E   E Q   E Q   Q     Q   E Q   Q   E   Q   E E E E Q

|-----------6-----|---6---7-8-------|----------/9---7-|(7)----------7---|
|-----5-8-------7-|(7)--------------|-------5---------|---------7-------|
|-6---------------|-------------6---|-5---8-----------|-----------------|
|-----------------|-----------------|-----------------|-----1-----------|
  Q   E Q   Q   E   E Q   E Q   Q     Q   E Q   Q   E   Q   Q   Q   Q

|-----------7-----|---7-----8-------|-----------------|-----------------|
|-----5-8-------8-|-----------------|-----3-5---4---3-|(3)------3-------|
|-6---------------|-------6-----7---|-5---------------|-------------3---|
|-----------------|-----------------|-----------------|-----------------|
  Q   E Q   Q   E   E Q   E Q   Q     Q   E Q   Q   E   Q   Q   Q   Q

|-3-----3---3---2-|(2)----2---------|-----------------|-----------------|
|-----------------|---------3---1---|-----------------|-3-------------3-|
|-----------------|-----------------|-5---------------|---------3---3---|
|-----------------|-----------------|---------5---5-5-|-----------------|
  Q.    Q   Q   E   Q.    E Q   Q     H       Q   E E   H       Q   S E.

|-3-----3---3---2-|(2)----2---------|-----------------|-----------------|
|-----------------|---------3---1---|-0-----0---0---3-|(3)----3---------|
|-----------------|-----------------|-----------------|-------------3---|
|-----------------|-----------------|-----------------|-----------------|
  Q.    Q   Q   E   Q.    E Q   Q     Q.    Q   Q   E   Q.    Q.    Q

|-3-----3---3---2-|(2)--------------|-----------------|-----------------|
|-----------------|-----------------|-----------------|-----------------|
|-----------------|-----------------|-----------------|-----------------|
|-----------------|-----------------|-----------------|-----------------|
  Q.    Q   Q   E   W                 W                 W

|-----------------|-----------------|-----------------|-----------------|
|-----------7---5-|(5)--------------|(5)--------------|(5)--------------|
|-5-----8---------|-----------------|-----------------|-----------------|
|-----------------|-----------------|-----------------|-----------------|
  Q.    Q   Q S S   W                 W                 W

|-----------------|-----------------|-----------------|-----------------|
|-----------7---5-|(5)--------------|(5)--------------|(5)--------------|
|-5-----8---------|-----------------|-----------------|-----------------|
|-----------------|-----------------|-----------------|-----------------|
  Q.    Q   Q S S   W                 W                 W

Interlude 3

|-----------------|-----------------|-----------------|-----------------|
|-----------------|-----------------|-----------------|-----------------|
|-5-5-------------|-----------------|-----------------|-----------------|
|-----------------|-----------------|-----------------|-----------------|
  E E Q   H         W                 W                 W

|-----------------|-----------------|-----------------|-----------------|
|-----------7---5-|(5)--------------|-----------------|-------------5---|
|-5-----8---------|-----------------|-----------------|-----------------|
|-----------------|-----------------|-----------------|-----------------|
  Q.    Q   Q S S   W                 W                 H       Q   Q

|-----------------|-----------------|-----------------|-----------------|
|-----------------|-----5-----------|-----------------|-----------------|
|-----------------|-----------------|-----------------|-----------------|
|-----------------|-----------------|-----------------|-----------------|
  W                 Q   H       Q     W                 W

|-----------------|-----------------|-----------------|-----------------|
|-----------7---5-|(5)--------------|-----------------|-----------------|
|-5-----8---------|-----------------|-----------------|-----------------|
|-----------------|-----------------|-----------------|-----------------|
  Q.    Q   Q S S   W                 W                 W

|-----------------|-----------------|-----------------|-----------------|
|-----------7---5-|(5)--------------|-----------7---5-|(5)--------------|
|-5-----8---------|-----------------|-5-----8---------|-----------------|
|-----------------|-----------------|-----------------|-----------------|
  Q.    Q   Q S S   W                 Q.    Q   Q S S   W

|-----------------|-----------------|-----------------|-----------------|
|-----------7---5-|(5)--------------|-----------7---5-|(5)--------------|
|-5-----8---------|-----------------|-5-----8---------|-----------------|
|-----------------|-----------------|-----------------|-----------------|
  Q.    Q   Q S S   W                 Q.    Q   Q S S   W

|-----------------|-----------------|-----------------|-----------------|
|-----------7---5-|(5)--------------|-----------7---5-|(5)--------------|
|-5-----8---------|-----------------|-5-----8---------|-----------------|
|-----------------|-----------------|-----------------|-----------------|
  Q.    Q   Q S S   W                 Q.    Q   Q S S   W

|-----------------|-----------------|-----------------|-----------------|
|-----------7---5-|(5)--------------|-----------------|-----7-----------|
|-5-----8---------|-----------------|-5---------------|-----------------|
|-----------------|-----------------|-----------------|-----------------|
  Q.    Q   Q S S   W                 H       H         Q   Q   H

Bridge 5

|-----------6-----|---6-----8-------|-----------7---5-|(5)----5---------|
|-----5-8-------7-|(7)--------------|-------7---------|-----7-------7---|
|-6---------------|-------6-----7---|-5---8-----------|-----------------|
|-----------------|-----------------|-----------------|-----------------|
  Q   E Q   Q   E   E Q   E Q   Q     Q   E Q   Q   E   Q   E Q.    Q

|-----------6-----|---6-----8-------|----------/9---7-|(7)----------7---|
|-----5-8-------7-|(7)--------------|-------5---------|-------3/7-------|
|-6---------------|-------6-----7---|-5---8-----------|-----------------|
|-----------------|-----------------|-----------------|-----------------|
  Q   E Q   Q   E   E Q   E Q   Q     Q   E Q   Q   E   Q   E E Q   Q

|-----------6-----|---6-----8-------|-----------------|-----------------|
|-----5-8-------7-|(7)--------------|-----3-5---4---3-|(3)--------------|
|-6---------------|-------6-----7---|-5---------------|-------5-6---3---|
|-----------------|-----------------|-----------------|-----------------|
  Q   E Q   Q   E   E Q   E Q   Q     Q   E Q   Q   E   Q   E E Q   Q

|-------3---3-----|-----------------|-----------------|-----------------|
|-----3-----------|---------1-------|-------5---6---7-|(7)0-5-6-7-------|
|-1---------------|-------------1---|-5---5-----------|-------------5---|
|---------------0-|(0)----0---------|-----------------|-----------------|
  Q   E Q   Q   E   Q.    E Q   Q     Q   E Q   Q   E   Q E E E Q   Q

Bridge 6

|-----------6-----|---6---7-8-------|----------/9---7-|(7)--------------|
|-----5-8-------7-|(7)--------------|-------7---------|-----------------|
|-6---------------|-------------7---|-5---8-----------|-----0-3-5-0-----|
|-----------------|-----------------|-----------------|-------------1---|
  Q   E Q   Q   E   E Q   E Q   Q     Q   E Q   Q   E   E E E E E E Q

|-----------6-----|---6-----8-------|----------/9---7-|(7)----------7---|
|-----5-8-------7-|(7)--------------|-------5---------|-------3-7-------|
|-6---------------|-------------7---|-5---8-----------|-----------------|
|-----------------|-----------------|-----------------|-----------------|
  Q   E Q   Q   E   E Q   E Q   Q     Q   E Q   Q   E   Q   E E Q   Q

|-----------6-----|---6-----8-------|-----------------|-----------------|
|-----5-8-------7-|(7)--------------|-----3-5---4---3-|(3)--------------|
|-6---------------|-------6-----7---|-5---------------|-----5---6-6-3---|
|-----------------|-----------------|-----------------|-----------------|
  Q   E Q   Q   E   E Q   E Q   Q     Q   E Q   Q   E   Q   Q   E E Q

|-------3---3---2-|-2---------------|-----------------|-----------------|
|-----3-----------|-----------------|-------7-------3-|(3)--------------|
|-1---------------|-----------------|-5---8-----5-----|-------6-----5---|
|-----------------|-----------------|-----------------|-----------------|
  Q   E Q   Q   E   W                 Q   E Q   Q S S   Q.    Q.    Q

|-----------------|---------2-------|-----------------|-----------------|
|-----3-5---------|-------2---------|---------------3-|(3)--------------|
|-1---------1---0-|(0)----------1---|-5-----3---5-----|-------3-5-5-3---|
|-----------------|-----------------|-----5-----------|-----------------|
  Q   E Q   Q   E   Q.    E Q   Q     Q   E Q   Q S S   Q.    E E E Q

|---------------2-|(2)--------------|-----------------|-----------------|
|-----3-----------|-----------------|-----------------|-----------------|
|-1-----1---1-----|-----------------|-----------------|-----------------|
|-----------------|-----------------|-----------------|-----------------|
  Q   E Q   Q   E   W                 W                 W

|-----------------|-----------------|-----------------|-----------------|
|-----------------|-----------------|-----------------|-----------------|
|-----------------|-----------------|-5---------------|(5)--------------|
|-----------------|-----------------|-----------------|-----------------|
  W                 W                 W                 W

|-----------------|-----------------||
|-----------------|-----------------||
|-5---------------|(5)--------------||
|-----------------|-----------------||
  W                 W


Key to rhythm notations:

W - Whole Note/Semi-Brieve
H - Half Note/Minim
Q - Quarter Note/Crotchet       Q. - Dotted Quarter Note
E - Eight Note/Quaver           E. - Dotted Eight Note
S - Sixteenth Note/Semi-Quaver  S. - Dotted Sixteenth Note
Добавлено: 11.05.2016
Другие материалы по этой песне:

Страница создана 09.05.2012
http://primanota.ru/dangelo/spanish-joint-chords.htm
Привет, Гость.
Предлагаем пройти революционный курс по гитаре.
Подарок от PrimaNota.Ru, забирай!