PrimaNota.ru - самый крупный в мире бесплатный архив песенных текстов, аккордов, табулатур и нот


Dangelo - Shit Damn Motherfucker - бас-таба, видео

Регистрация Запомнить меня
Войти через:  Facebook Google Twitter Vk Yandex Mail.ru

Dangelo - Shit Damn Motherfucker - бас-таба, видео

Печатать
Просмотров: 79
Авторы музыки: D’Angelo
Авторы текста: D’Angelo
Tabbed by Dan Bogosian
Bassist for Spillway: http://spillwaymusic.bandcamp.com/
Music writer: www.dlbogosian.com


INTRO

G-----------------------
D-----------7--7/9~~~~--
A--7-9--10--------------
E-----------------------

G------------------------------
D-----------7/9--7~~-----------
A--7-9--10------------7--------
E-----------------------9-9--7-

G------------0~~~~~----------0-----------2-4~~--
D-----7-6----------------------0----------------
A-----------7-------0--1--2------4-3~~~---------
E--5--------------------------------------------


VERSE (main part)

G--------//9----------------
D---------------7/9---------
A--7--------10--------------
E-----(0)------------8~~~~--

G--------------------------------
D----------------7h9~~~7---------
A--------------7--------10-9-----
E--8~~~~--9h10---------------(0)-


VERSE (closing part)

G-----------------------7-6--
D-----------4-5--5--9------5-
A--7---7-7-------------------
E----------------------------

G-5~~~-5-------------------
D--------5-----------------
A----------3---------------
E------------5-7---7-7-7-6-

G-----------------------------
D----------------------7-6-5--
A--------------------7--------
E-5~~~~--5~~~~--5~~~----------

G-----------------------------
D------5-----4---3-3-----2----
A--------5-----5-------2---2--
E-----------------------------

CHORUS

G-----------2--2/4~~~~--
D--2-4--5---------------
A-----------------------
E-----------------------

D-----------2/4--2~~~~------
D--2-4--5-------------------
A----------------------33---
E---------------------------

G-----------2--2/4~~~~--
D--2-4--5---------------
A-----------------------
E-----------------------

D-----------2/4--2~~~~------
D--2-4--5-------------------
A----------------------33---
E---------------------------


G-----------2--2/4~~~~--
D--2-4--5---------------
A-----------------------
E-----------------------

D-----------2/4--2~~~~------
D--2-4--5-------------------
A----------------------33---
E---------------------------

G------------0~~~~~----------0-----------2-4~~--
D-----7-6----------------------0----------------
A-----------7-------0--1--2------4-3~~~---------
E--5--------------------------------------------
Добавлено: 01.11.2015
Другие материалы по этой песне:

Страница создана 30.11.2014
http://primanota.ru/dangelo/shit-damn-motherfucker-chords.htm
Привет, Гость.
Предлагаем пройти революционный курс по гитаре.
Подарок от PrimaNota.Ru, забирай!