PrimaNota.ru - самый крупный в мире бесплатный архив песенных текстов, аккордов, табулатур и нот


Dangelo - Send it on - текст песни, бас-таба, видео

Регистрация Запомнить меня
Войти через:  Facebook Google Twitter Vk Yandex Mail.ru

Dangelo - Send it on - текст песни, бас-таба, видео

Печатать
Просмотров: 71
Авторы текста: Angie Stone, D’Angelo
                                       Send It On
                                        D'Angelo
                                    

Bass                                                               D'Angelo
                                                                Angie Stone
                                                              Luther Archer

In 6/4

Tuning: DGCF

Horn Fill

F|-------------------------|-------------------------|
C|-------------------------|-------------------------|
G|-5-----------------------|(5)/---------------------|
D|-------------------------|-------------------------|
   W.                        W.

F|-------------------------|-------------------------|
C|/16----------------------|(16)---------------------|
G|/17----------------------|(17)-------------5-------|
D|-------------------------|-------------------------|
   W.                        W               H

Intro

F||----------4-------4-------|-------------------------|
C||o-----4-----------------4-|-------------------------|
G||o-2-----------------------|-------------------------|
D||--------------------------|-x-5-------------5-7---8-|
     Q   Q   Q   Q   Q.    E   E H.          E E Q   E

F|-------------------------|--------------------------||
C|-------------------------|-------------------------o||
G|-x-5-------------5---5---|-------------------------o||
D|---------------5---------|-x-3---------x-3---5---6--||
   E H.          E Q   E E   E H       E E Q   Q   E

Chorus 1

F||----------4-------4-------|-------------------------|
C||o-----4-----------------4-|-------------------------|
G||o-2-----------------------|-------------------------|
D||--------------------------|-x-5-------------5-7---8-|
     Q   Q   Q   Q   Q.    E   E H.          E E Q   E

F|-------------------------|--------------------------||
C|-------------------------|-------------------------o||
G|-x-5-------------5---5---|-------------------------o||
D|---------------5---------|-x-3---------x-3---5---6--||
   E H.          E Q   E E   E H       E E Q   Q   E

Verse 1

F|-------16----------------|-------------------------|
C|---4---16----------------|-------------------------|
G|-x-----------------------|-------------------------|
D|-------------------------|-x-5-------------5-7---8-|
   E Q   Q   E H.            E H.          E E Q   E

F|-------------------------|-------------------------|
C|-------------------------|-------------------------|
G|-x-5-------------5---5---|-------------------------|
D|---------------5---------|-x-3---------x-3---5---6-|
   E H.          E Q   E E   E H       E E Q   Q   E

F|-------------------------|-------------------------|
C|---------9-------9-------|-------------------------|
G|-----9-----------------9-|-------------------------|
D|-7-----------------------|-x-5-------------5-7---8-|
   Q   Q   Q   Q   Q.    E   E H.          E E Q   E

F|-------------------------|-------------------------|
C|-------------------------|-------------------------|
G|-x-5-------------5---5---|-------------------------|
D|---------------5---------|-x-3---------x-3---5---6-|
   E H.          E Q   E E   E H       E E Q   Q   E

Chorus 2

F|---------9---7-----------|-------------------------|
C|-------------------------|-------------------------|
G|-----9-------------------|-------------------------|
D|-7-----------------------|-x-5-------------5-7---8-|
   Q   Q   Q   Q   Q.    E   E H.          E E Q   E
                                      ___
                                     | 3 |
F|-------------------------|-------------------------|
C|-------------------------|---------5---------------|
G|-x-5-------------5---5---|-----------5-------------|
D|---------------5---------|-x-3---------3-3---5---6-|
   E H.          E Q   E E   E H     E E E Q   Q   E

F|-------------------------|-------------------------|
C|---------9---------x-x---|-------------------------|
G|-----9-----------------9-|-------------------------|
D|-7-----------------------|-x-5-------------5-7---8-|
   Q   Q   Q   Q   E E E E   E H.          E E Q   E

F|-------------------------|-------------------------|
C|-------------------------|-------------------------|
G|-x-5-------------5---5---|-------------------------|
D|---------------5---------|-x-3---------x-3---5---6-|
   E H.          E Q   E E   E H       E E Q   Q   E

Verse 2

F|-14\---------------------|-------------------------|
C|-------------------------|-------------------------|
G|-12\---------------------|-------------------------|
D|-------------------------|-x-5-------------5-7---8-|
   H       Q   H.            E H.          E E Q   E

F|-------------------------|-------------------------|
C|-------------------------|-------------------------|
G|-x-5-------------5---5---|-------------------------|
D|---------------5---------|-x-3---------x-3---5---6-|
   E H.          E Q   E E   E H       E E Q   Q   E

F|-------------------------|-------------------------|
C|---------9-------9-------|-------------------------|
G|-----9-----------------9-|-------------------------|
D|-7-----------------------|-x-5-------------5-7---8-|
   Q   Q   Q   Q   Q.    E   E H.          E E Q   E

F|-------------------------|-------------------------|
C|-------------------------|-------------------------|
G|-x-5-------------5---5---|-------------------------|
D|---------------5---------|-x-3---------x-3---5---6-|
   E H.          E Q   E E   E H       E E Q   Q   E

F|---------16--14----------|-------------------------|
C|---------16--16--------7-|-------------------------|
G|-----9-------------------|-7-----------------------|
D|-7-----------------------|---5-------------5-7---8-|
   Q   Q   Q   H       E E   E H.          E E Q   E

F|-------------------------|-------------------------|
C|-------------------------|-------------------------|
G|-x-5-------------5---5---|-------------------------|
D|---------------5---------|-x-3---------x-3---5---6-|
   E H.          E Q   E E   E H       E E Q   Q   E

F|-------------------------|-------------------------|
C|---------9-------9-------|-------------------------|
G|-----9-----------------9-|-------------------------|
D|-7-----------------------|-x-5-------------5-7---8-|
   Q   Q   Q   Q   Q.    E   E H.          E E Q   E
                  ___
                 | 3 |
F|-------------9-7---------|-------------------------|
C|-----------------7-------|-------------------------|
G|-x-5---------------7-5---|-------------------------|
D|-------------------------|-x-3---------x-3---5---6-|
   E H.        E E E E Q     E H       E E Q   Q   E

Horn Fill

F|-------------------------|-------------------------|
C|-------------------------|-------------------------|
G|-5-----------------------|(5)/---------------------|
D|-------------------------|-------------------------|
   W.                        W.

F|-------------------------|-------------------------|
C|/16----------------------|(16)---------------------|
G|/17----------------------|(17)-------------5-------|
D|-------------------------|-------------------------|
   W.                        W               H

Chorus 3

F|-------------------------|-------------------------|
C|---------9-------9-------|-------------------------|
G|-----9-----------------9-|-------------------------|
D|-7-----------------------|-x-5-------------5-7---8-|
   Q   Q   Q   Q   Q.    E   E H.          E E Q   E

F|-------------------------|-------------------------|
C|-------------------------|-------------------------|
G|-x-5-------------5---5---|-------------------------|
D|---------------5---------|-x-3---------x-3---5---6-|
   E H.          E Q   E E   E H       E E Q   Q   E

F|-------------------------|-------------------------|
C|---------9---------9-----|-------------------------|
G|-----9---------------9---|-------------------------|
D|-7---------------------7-|-x-5-------------5-7---8-|
   Q   Q   Q   Q   E E E E   E H.          E E Q   E

F|---------------14--11-9--|-------------------------|
C|-------------12----------|-------------------------|
G|-x-5-------12------------|-------------------------|
D|-------------------------|-x-3---------------------|
   E H     E S S Q   E  E E  E W               E Q  

Bridge

F|-------------------------|-------------------------|
C|-x-8----------8----------|-x-5---------5-----------|
G|------------8-----8---10-|-----------5---5---------|
D|-------------------------|-----------------3-------|
   E H      E E Q   Q   E    E H       E E.E E S Q

F|-------------------------|-------------14-12----------------|
C|-x-8-------------------8-|-x-5---12-14-------14-12-9-12-----|
G|----------------8---10---|------------------------------10--|
D|-------------------------|----------------------------------|
   E H        E E Q   Q  E   E H   S  S  S  S  S  S  E.S  Q

F|-----------------5---5---|-------------------------|
C|-------------------5---5-|-------------7-----------|
G|-x-3-----------x---------|-x-5-------5---5---------|
D|-------------------------|-----------------0-5-0-2-|
   E H.          E E.E.S S   E H     E S S E.E.S E S

Chorus 4

F|-------------------------|-------------------------|
C|---------9---------------|-------------------------|
G|-----9-------------------|-------------------------|
D|-7-----------------------|-x-5-------------5-7---8-|
   Q   Q   Q   H.            E H.          E E Q   E

F|-------------------------|-------------------------|
C|-------------------------|-------------------------|
G|-x-5-------------5---5---|-------------------------|
D|---------------5---------|-x-3---------x-3---5---6-|
   E H.          E Q   E E   E H       E E Q   Q   E

F|-------------------------|-------------------------|
C|---------9-------9-------|-------------------------|
G|-----9-----------------9-|-------------------------|
D|-7-----------------------|-x-5-------------5-7---8-|
   Q   Q   Q   Q   Q.    E   E H.          E E Q   E

F|-----------------7-------|-------------------------|
C|---------------7-----7---|-------------------------|
G|-x-5---------------------|-------------------------|
D|-------------------------|-x-3---------x-3---5---6-|
   E H.          E Q   E E   E H       E E Q   Q   E

Verse 3

F|---14/16-----------------|-------------------------|
C|-------------------------|-------------------------|
G|-------------------------|-------------------------|
D|-------------------------|-x-5-------------5-7---8-|
   E E  E  E Q  H.           E H.          E E Q   E

F|-------------------------|-------------------------|
C|-------------------------|-------------------------|
G|-x-5-------------5---5---|-------------------------|
D|---------------5---------|-x-3---------x-3---5---6-|
   E H.          E Q   E E   E H       E E Q   Q   E

F|-------------------------|-------------------------|
C|---------9-------9-------|-------------------------|
G|-----9-----------------9-|-------------------------|
D|-7-----------------------|-x-5-------------5-7---8-|
   Q   Q   Q   Q   Q.    E   E H.          E E Q   E

F|-------------------------|-------------------------|
C|-------------------------|-------------------------|
G|-x-5-------------5---5---|-------------------------|
D|---------------5---------|-x-3---------x-3---5---6-|
   E H.          E Q   E E   E H       E E Q   Q   E

F|--------/11----7---------|-------------------------|
C|-------------------------|-------------------------|
G|-----9-------------------|-------------------------|
D|-7-----------------------|-x-5-------------5-7---8-|
   Q   Q   Q   E Q.    Q     E H.          E E Q   E

F|-------------------------|-------------------------|
C|-------------------------|-------------------------|
G|-x-5-------------5---5---|-------------------------|
D|---------------5---------|-x-3---------x-3---5---6-|
   E H.          E Q   E E   E H       E E Q   Q   E

F|-------------------------|-------------------------|
C|---------9---------------|-------------------------|
G|-----9-----------------x-|-x-----------------------|
D|-7-----------------------|---5-------------5-7---8-|
   Q   Q   Q   Q   Q.    E   E H.          E E Q   E

F|-----------------12--9---|-------------------------|
C|-------------7-9---------|-------------------------|
G|-x-5---------------------|-------------------------|
D|-------------------------|-x-3---------x-3---5---6-|
   E H       E E E Q   E E   E H       E E Q   Q   E

Chorus 5

F|---14\-------------------|-------------------------|
C|---12\-------------------|-------------------------|
G|-------------------------|-------------------------|
D|-------------------------|-x-5-------------5-7---8-|
   E H       E H.            E H.          E E Q   E

F|-------------------------|-------------------------|
C|-------------------------|-------------------------|
G|-x-5-------------5---5---|-------------------------|
D|---------------5---------|-x-3---------x-3---5---6-|
   E H.          E Q   E E   E H       E E Q   Q   E

F|-------------------------|-------------------------|
C|---------9-------9-------|-------------------------|
G|-----9-----------------9-|-------------------------|
D|-7-----------------------|-x-5-------------5-7---8-|
   Q   Q   Q   Q   Q.    E   E H.          E E Q   E

F|-------------------------|-------------------------|
C|-------------------------|-------------------------|
G|-x-5---------5-7-5---5---|-------------------------|
D|-------------------------|-x-3---------x-3---5---6-|
   E H         E E Q   E E   E H       E E Q   Q   E

Verse 4

F|----------------------14-|-------------------------|
C|-------------------------|-------------------------|
G|-------------------------|-------------------------|
D|-7-----------------------|---5-------------5-7---8-|
   Q   Q   Q   Q   Q   E E   E H.          E E Q   E

F|-------------------------|-------------------------|
C|-------------------------|-------------------------|
G|-x-5-------------5---5---|-------------------------|
D|---------------5---------|-x-3---------x-3---5---6-|
   E H.          E Q   E E   E H       E E Q   Q   E

F|-------------------------|-------------------------|
C|---------9---------------|-------------------------|
G|-----9---------------x-x-|-x-----------------------|
D|-7-----------------------|---5-------------5-7---8-|
   Q   Q   Q   Q   Q   E E   E H.          E E Q   E

F|-------------------------|-------------------------|
C|-------------------------|-------------------------|
G|-x-5-------------5---5---|-------------------------|
D|---------------5---------|-x-3---------x-3---5---6-|
   E H.          E Q   E E   E H       E E Q   Q   E

F|--------/9-------7-------|-------------------------|
C|-------------------------|-------------------------|
G|-----9-------------------|-------------------------|
D|-7-----------------------|-x-5-------------5-7---8-|
   Q   Q   Q   E Q.    Q     E H.          E E Q   E

F|-------------------------|-------------------------|
C|-------------------------|-------------------------|
G|-x-5-------------5---5---|-------------------------|
D|---------------5---------|-x-3---------x-3---5---6-|
   E H.          E Q   E E   E H       E E Q   Q   E

F|----------------------|-------------------------|
C|-------------------------|-------------------------|
G|-----------------------x-|-x-----------------------|
D|-7-----------------------|---5-------------5-7---8-|
   Q   H       Q   Q.    E   E H.          E E Q   E

F|---------------7---------|-------------------------|
C|-------------7-----7-----|-------------------------|
G|-x-5-----------------5---|-------------------------|
D|-------------------------|-x-3---------x-3---5---6-|
   E H       E E Q   E E E   E H       E E Q   Q   E

F|---------------9---12-16-|-17-14-------------------|
C|---------------0---0-----|-------------------------|
G|-------------------------|----------12--12---------|
D|---7---------------------|-x-----------------------|
   E H     E E E Q   Q  Q    E  Q.    Q   H      Q

F|------------12-----------|-------------16--14-12---|
C|----------9----12--------|-x-5/--------------------|
G|-x-5---10---------12-----|-------------------------|
D|---------------------10--|-------------------------|
   E H S S  S E  E. E  E.E   E H       E Q   E  Q  E
                                    _____
                                   |  3  |
F|-14-12-------------------|----------------14--12-10--|
C|-------12---------12-----|-------------12------------|
G|------------12-14----12--|-12----12-14---------------|
D|-------------------------|---------------------------|
   E  E  Q. S S  Q  Q  Q     H     E  E  E  Q   E  Q.

F|-----------------14------|
C|--------------------14---|
G|---12--------------------|
D|-----------------------3-|
   E H.            Q  Q  E

Outro

F|-------------------------|-------------------------|
C|-------------------------|-------------------------|
G|-------------------------|-------------------------|
D|(3)----------------------|-3---3---3---3---3---3---|
   W.                        Q   Q   Q   Q   Q   Q

F|-------------------------|-------------------------|
C|-------------------------|-------------------------|
G|-------------------------|-------------------------|
D|(3)----------------------|-3-------3-------3-------|
   H.                        H       H       H

F|-------------------------|-------------11------12--|
C|-------------------------|--------/10--------------|
G|-------------------------|-----8-------------------|
D|(3)----------------------|-------------------------|

F|(12)---------------------||
C|-------------------------||
G|-------------------------||
D|-------------------------||

Key to rhythm notations:

W - Whole Note/Semi-Brieve
H - Half Note/Minim
Q - Quarter Note/Crotchet       Q. - Dotted Quarter Note
E - Eight Note/Quaver           E. - Dotted Eight Note
S - Sixteenth Note/Semi-Quaver  S. - Dotted Sixteenth Note
Добавлено: 01.11.2015
Другие материалы по этой песне:

Страница создана 25.04.2012
http://primanota.ru/dangelo/send-it-on-chords.htm
Привет, Гость.
Предлагаем пройти революционный курс по гитаре.
Подарок от PrimaNota.Ru, забирай!