PrimaNota.ru - самый крупный в мире бесплатный архив песенных текстов, аккордов, табулатур и нот


Dangelo - Really Love - таба, видео

Регистрация Запомнить меня
Войти через:  Facebook Google Twitter Vk Yandex Mail.ru

Dangelo - Really Love - таба, видео

Печатать
Просмотров: 98
Уроки эстрадного вокала в Санкт-Петербурге
Авторы музыки: D’Angelo
Авторы текста: Kendra Foster, D’Angelo
Broken into riffs. Repeats twice between 1:33 and 2:04

E|------------------|
B|--8--10--12--8----|
G|----------------9-|
D|------------------|
A|------------------|
E|------------------|


E|---------------------|
B|--7--8--10--8--7--8--|
G|---------------------|
D|---------------------|
A|---------------------|
E|---------------------|


E|----------------------------------|
B|--8--10--12--8--7---------------8-|
G|-------------------9------7--5----|
D|----------------------------------|
A|----------------------------------|
E|----------------------------------|


E|-----------------------|
B|-----------------------|
G|--5--7--5--7--5--7--4--|
D|-----------------------|
A|-----------------------|
E|-----------------------|


E|---------------------|
B|---------------4--5--|
G|--2--4--5--4---------|
D|---------------------|
A|---------------------|
E|---------------------|
Добавлено: 01.11.2015
Вам также может быть интересно:
Другие материалы по этой песне:
  • Аккорды и текст

Страница создана 01.11.2015
http://primanota.ru/dangelo/really-love-chords.htm
Привет, Гость.
Предлагаем пройти революционный курс по гитаре.
Подарок от PrimaNota.Ru, забирай!