PrimaNota.ru - самый крупный в мире бесплатный архив песенных текстов, аккордов, табулатур и нот


Dangelo - Playa Playa - текст песни, бас-таба, видео

Регистрация Запомнить меня
Войти через:  Facebook Google Twitter Vk Yandex Mail.ru

Dangelo - Playa Playa - текст песни, бас-таба, видео

Печатать
Просмотров: 211
Уроки эстрадного вокала в Санкт-Петербурге
Авторы музыки: ?uestlove
Авторы текста: Angie Stone, D’Angelo
                                      Playa Playa
                                        D'Angelo
                                    

Bass                                                               D'Angelo
                                                                Angie Stone
                                                      Ahmir Khalib Thompson

In 2/2

Tuning: DGCF

Intro Pt 1

F|-----------------|
C|---  16 Bars  ---|
G|---    Rest   ---|
D|-----------------|

Intro Pt 2

F|-----------------|-----------------|-----------------|-----------------|
C|-----------------|-----------------|-----------------|-----------------|
G|-----5-----------|-----5-----------|-----5-----------|-----5-----------|
D|-3-----4-------3-|-3-----4---------|-3-----4---------|-3-----4---------|
   Q   E.S Q   E E   Q   E.S Q   Q     Q   E.S Q   Q     Q   E.S Q   Q   

F|-----------------|-----------------|-----------------|-------17--------|
C|-----------------|-----------------|-----------------|-------17--------|
G|-----5-----------|-----5-----------|-----5-----------|-----------------|
D|-3-----4-------3-|-3-----4-------3-|-3-----4-------3-|-3---------------|
   Q   E.S Q   E E   Q   E E Q   E E   Q   E.S Q   E E   Q   E.S Q   Q   

F|-----------------|-----------------|-----------------|-----------------|
C|-----------------|-----------------|-----------------|-----------------|
G|-----5-----------|-----5-----------|-----5-----------|-----5-----------|
D|-3-----4-------3-|-3-----4---------|-3-----4---------|-3-----4---------|
   Q   E.S Q   E E   Q   E.S Q   Q     Q   E.S Q   Q     Q   E.S Q   Q   

F|-----------------|-----------------|-----------------|-------15/17-----|
C|-----------------|-----------------|-----------------|-------15/17-----|
G|-----5-----------|-----5-----------|-----5-----------|-----------------|
D|-3-----4-------3-|-3-----4-------3-|-3-----4-------3-|-3---------------|
   Q   E.S Q   E E   Q   E E Q   E E   Q   E.S Q   E E   Q   E.S  Q  Q   

Intro 3

F|-----------------|-----------------|---------------8-|(8)--------------|
C|-----------------|-----------------|-----------------|-----------------|
G|-----------------|---------------3/|---5\3---6-------|-------6/8\--6---|
D|-3-------------5/|-6---------------|-----------------|-----------------|
   Q   H       E.S   Q   H     E S S   S E S Q E E E.S   E Q   S S Q E E 

F|-----------------|-----------------|---------------8-|(8)--------------|
C|-----------------|-----------------|-----------------|-----------------|
G|-----------------|---------------3/|---5\3---6-------|-----------------|
D|-3\1-1---------5/|-6-6-6-----------|-----------------|---0---1---2---3-|
   E.S Q   Q   E.S   E.S Q   Q E S S   S E S Q E E E.S   E E E E E E E E

F|-----------------|-----------------|---------------8-|(8)--------------|
C|-----------------|-----------------|-----------------|-----------------|
G|-----------------|---------------3/|---5\3---6-------|-------8-8-6-----|
D|-3-------------6-|(6)--------------|-----------------|-----------------|
   Q   H       E.S   Q   H     E S S   S E S Q E E E.S   E Q   S S Q   Q 

F|-----------------|-----------------|---------------8-|(8)--------------|
C|-----------------|-----------------|-----------------|-----------------|
G|-----------------|---------------3/|---5\3---6-------|---------------3/|
D|-5-3-3---------6/|(6)--------------|-----------------|-----------------|
   E E E E Q   E.S   Q   H     E S S   S E S Q E E E.S   E E Q   Q   E E

F|---------------8-|(8)--------------|
C|-----------------|-----------------|
G|---5\3---6-------|---------8-------|
D|-----------------|-----------------|
   S E S Q E E E.S   E Q   S S E E Q

Verse 1

F|-----------------|-----------------|---------------8-|(8)--------------|
C|-----------------|-----------------|-----------------|-----------------|
G|-----------------|---------------5-|(5)------6-------|---------8-------|
D|-3-------------5/|-6---------------|-----------------|-----------------|
   Q   Q   Q   E.S   Q   H     E S S   E E Q Q E E E.S   E Q   S S E E Q

F|-----------------|-----------------|-----------------|-----------------|
C|-----------------|-----------------|---------------8-|-----------------|
G|-----------------|---------------5-|(5)------6-------|-----------------|
D|-3-------------5/|-6---------------|-----------------|---0---1---2---3-|
   Q   Q   Q   E.S   Q   H     E S S   E E Q Q E E E.S   E E E E E E E E

E|-----------------|-----------------|---------------8-|(8)--------------|
C|-----------------|-----------------|-----------------|-----------------|
G|-----------------|---------------5-|(5)------6-------|-------------8---|
D|(3)------------6-|(6)--------------|-----------------|-----------------|
   Q   Q   Q   E.S   Q   H     E S S   E E Q Q E E E.S   E Q   Q   S S Q

F|-----------------|-----------------|---------------8-|(8)--------------|
C|-----------------|-----------------|-----------------|-----------------|
G|-----------------|---------------5-|(5)------6-------|-------------8---|
D|-----3---------6-|-6---------------|-----------------|-----------------|
   Q   Q   Q   E.S   Q   H     E S S   E E Q Q E E E.S   E Q   Q   S S Q

F|---------------8-|(8)--------------|
C|-----------------|-----------------|
G|-3---5---6-------|-------------8---|
D|-----------------|-----------------|
   E E E E E E E.S   E Q   Q   S S Q

Verse 2

F|-----------------|-----------------|---------------8-|(8)--------------|
C|-----------------|-----------------|-----------------|-----------------|
G|-----------------|---------------5-|(5)------6-------|---------6---8---|
D|-3-------------5/|-6---------------|-----------------|-----------------|
   Q   Q   Q   E.S   Q   H     E S S   E E Q Q E E E.S   E Q   S S Q E E

F|-----------------|-----------------|-----------------|-----------------|
C|-----------------|-----------------|-----------------|---------4/5-----|
G|-----------------|---------------5-|(5)------6-------|-----------------|
D|-----3---------6-|-6---------------|-----------------|-----------------|
   Q   Q   Q   E.S   Q   H     E S S   E E Q Q E E Q     Q   E S S Q   Q

F|-----------------|-----------------|---------------5/|-7---------------|
C|-----------------|-----------------|-----------------|-----------------|
G|-----------------|---------------5-|(5)------6-------|-----------------|
D|-----3---------6-|-6---------------|-----------------|-------------3---|
   Q   Q   Q   E.S   Q   H     E S S   E E Q Q E E E.S   E E Q   E S S Q

F|-----------------|-----------------|---------------8-|(8)--------------|
C|-----------------|-----------------|-----------------|-----------------|
G|-----------------|---------------5-|(5)------6-------|-----------6/8\6-|
D|-3-------------6-|(6)--------------|-----------------|-----------------|
   Q   Q   Q   E.S   Q   H     E S S   E E Q Q E E E.S   E E Q E S S E E

F|---------------8-|(8)--------------|
C|-----------------|-----------------|
G|-----5---6-------|-----------------|
D|-----------------|---------------3-|
   Q   E E E E E.S   E E Q   Q E S S

Interlude 1

F|-----------------|-----------------|-----------------|-----------------|
C|-----------------|-----------------|-----------------|-----------------|
G|-----5-----------|-----5-----------|-----5-----------|-----5-----------|
D|-3-----4-------3-|-3-----4-------3-|-3-----4-------3-|-3-----4-------3-|
   Q   E.S Q   E E   Q   E.S Q   E E   Q   E.S Q   E E   Q   E.S Q   E E

F|-----------------|-----------------|-----------------|-------15/17-----|
C|-----------------|-----------------|-----------------|-------15/17-----|
G|-----5-----------|-----5-----------|-----5-----------|-----------------|
D|-3-----4-------3-|-3-----4-------3-|-3-----4-------3-|-3-------------3-|
   Q   E.S Q   E E   Q   E.S Q   E E   Q   E.S Q   E E   Q   E.S  Q  E E

F|-----------------|-----------------|-----------------|-------17--------|
C|-----------------|-----------------|-----------------|-------17--------|
G|-----5-----------|-----5-----------|-----5-----------|-----5-----------|
D|-3-----4-------3-|-3-----4-------3-|-3-------------3-|-3-------------3-|
   Q   E.S Q   E E   Q   E.S Q   E E   Q   E.S Q   E E   Q   E.S Q   E E

F|-----------------|-----------------|-----------------|-------15/17-----|
C|-----------------|-----------------|-----------------|-------15/17-----|
G|-----5-----------|-----5-----------|-----5-----------|-----------------|
D|-3-----4-------3-|-3-----4-------3-|-3-----4-------3-|-3---------------|
   Q   E.S Q   E E   Q   E.S Q   E E   Q   E.S Q   E E   Q   E.S  Q  E E

Verse 3

F|-----------------|-----------------|---------------8-|(8)--------------|
C|-----------------|-----------------|-----------------|-----------------|
G|-----------------|---------------5-|(5)------6-------|---------6-8-6---|
D|-3-------------6-|-6---------------|-----------------|-----------------|
   Q   Q   Q   E.S   Q   H     E S S   E E Q Q E E E.S   E Q   S S Q E E

F|-----------------|-----------------|-----------------|-----------------|
C|-----------------|-----------------|-----------------|-3---------------|
G|-----------------|---------------5-|(5)------6-------|-----------------|
D|-3-------------6-|-6---------------|-----------------|---0---1---2-2---|
   Q   Q   Q   E.S   Q   H     E S S   E E Q Q E E q     E E E E E E Q
                                                                ___
                                                               | 3 |
F|-----------------|-----------------|---------------8-|(8)--------------|
C|-----------------|-----------------|-----------------|-----------------|
G|-----------------|---------------3-|-5-------6-------|-------x-x-5-3---|
D|-3-------------6-|-6---------------|-----------------|-----------------|
   Q   Q   Q   E.S   Q   H     E S S   E E Q Q E E E.S   E Q   S S S E E

F|-----------------|-----------------|---------------6/|-8---------------|
C|-----------------|-----------------|-----------------|-----------------|
G|-----------------|---------------5-|(5)------6-------|---------------5-|
D|-------3---5-5-5-|-6---------------|-----------------|-----------------|
   Q   E.S Q E S S   Q   H     E S S   E E Q Q E E E.S   E Q   Q   E S S

F|---------------6/|-8---------------|
C|-----------------|-----------------|
G|(5)------6-------|-----6-----------|
D|-----------------|-----------3-3---|
   E E Q Q E E E.S   E E Q   E.S Q

Verse 4

F|-----------------|-----------------|---------------8-|(8)--------------|
C|-----------------|-----------------|-----------------|-----------------|
G|-----------------|---------------5-|(5)------6-------|-----------------|
D|-3-------------6-|-6---------------|-----------------|-----------------|
   Q   Q   Q   E.S   Q   H     E S S   E E Q Q E E E.S   E E Q   H

F|-----------------|-----------------|---------------8-|(8)--------------|
C|-----------------|-----------------|-----------------|-----------------|
G|-----------------|---------------5-|(5)------6-------|-----------------|
D|-3-------------6-|-6---------------|-----------------|---0---1-1-2-----|
   Q   Q   Q   E.S   Q   H     E S S   E E Q Q E E E.S   E Q   E.S Q   E

F|-----------------|-----------------|---------------8-|(8)--------------|
C|-----------------|-----------------|-----------------|-----------------|
G|-----------------|---------------5-|(5)------6-------|---------8---6---|
D|-3-------------6-|-6---------------|-----------------|-----------------|
   Q   Q   Q   E.S   Q   H     E S S   E E Q Q E E E.S   E Q   S S Q E E

F|-----------------|-----------------|---------------8-|(8)--------------|
C|-----------------|-----------------|-----------------|-----------------|
G|-----------------|---------------5-|(5)------6-------|-------8---8-6---|
D|-----3---------6-|-6---------------|-----------------|-----------------|
   Q   Q   Q   E.S   Q   H     E S S   E E Q Q E E E.S   E Q S S E E E E

F|-----------------|-----------------|
C|---5-----3-------|-----------------|
G|-----------5-3---|-----------------|
D|---------------3-|---3-------1-----|
   E Q.    E E E E   E E Q   E E Q

Verse 5

F|-----------------|-----------------|---------------8-|(8)--------------|
C|-----------------|-----------------|-----------------|-----------------|
G|-----------------|---------------5-|(5)------6-------|---------6-8-----|
D|-3-------------6-|(6)--------------|-----------------|-----------------|
   Q   Q   Q   E.S   Q   H     E S S   E E Q Q E E E.S   E Q   S S Q   Q

F|-----------------|-----------------|---------------8-|(8)--------------|
C|-----------------|-----------------|-----------------|-----------------|
G|-----------------|---------------5-|(5)------6-------|-----------3---3-|
D|-----3---------6-|(6)--------------|-----------------|-----------------|
   Q   Q   Q   E.S   Q   H     E S S   E E Q Q E E E.S   E Q   S S Q   Q

F|-----------------|-----------------|---------------8-|(8)--------------|
C|-----------------|-----------------|-----------------|-----------------|
G|-----------------|---------------5-|(5)------6-------|-----------------|
D|-3---3---------6-|-6---------------|-----------------|---0-0-1---2-----|
   Q   Q   Q   E.S   Q   H     E S S   E E Q Q E E E.S   E S E.E E Q   E

F|-----------------|--------10-8-----|---------------8-|(8)--------------|
C|-----------------|-----------------|-----------------|-----------------|
G|-----------------|---------------5-|(5)------6-------|---------6-8---5-|
D|-3-------------6-|(6)--------------|-----------------|-----------------|
   Q   Q   Q   E.S   Q   E.S S Q E S   E E Q Q E E E.S   E Q   E E Q S S

F|---------------6/|-8---------------|
C|-----------------|-----------------|
G|(5)------6-------|-----------------|
D|-----------------|---------------3-|
   E E Q Q E E E.S   E E Q   Q.    E

Interlude 2

F|-----------------|-----------------|-----------------|-------17--------|
C|-----------------|-----------------|-----------------|-------17--------|
G|-----5-----------|-----5-----------|-----5-----------|-----5-----------|
D|-3-----4-------3-|-3-----4-------3-|-3-----4-------3-|-3-------------3-|
   Q   E.S Q   E E   Q   E.S Q   E E   Q   E.S Q   E E   Q   E.S Q     E

F|-----------------|-----------------|-----------------|------15/17------|
C|-----------------|-----------------|-----------------|------15/17------|
G|-----5-----------|-----5-----------|-----5-----------|-----------------|
D|-3-----4-------3-|-3-----4-------3-|-3-----4-------3-|-3-------------3-|
   Q   E.S Q   E E   Q   E.S Q   E E   Q   E.S Q   E E   Q   E.S Q     E

F|-----------------|-----------------|-----------------|------15/17------|
C|-----------------|-----------------|-----------------|------15/17------|
G|-----5-----------|-----5-----------|-----5-----------|-----5-----------|
D|-3-----4-------3-|-3-----4-------3-|-3-----4-------3-|-3-------------3-|
   Q   E.S Q   E E   Q   E.S Q   E E   Q   E.S Q   E E   Q   E.S Q     E

F|-----------------|-----------------|-----------------|-------------------|
C|-----------------|-----------------|-----------------|-------3/5---5-----|
G|-----5-----------|-----5-----------|-----5-----------|---------------5---|
D|-3-----4-------3-|-3-----4-------3-|-3-----4-------3-|-3---------------3-|
   Q   E.S Q   E E   Q   E.S Q   E E   Q   E.S Q   E E   Q   E.S Q S S S S

Chorus

F|-----------------|-----------------|---------------8-|(8)--------------|
C|-----------------|-----------------|-----------------|--------10-8-----|
G|-----------------|---------------5-|-5-------6-------|-----------------|
D|-3-------------6-|(6)--------------|-----------------|-----------------|
   Q   Q   Q   E.S   Q   H     E S S   E E Q Q E E E.S   E E E S S Q   Q


F|-----------------|-----------------|---------------8-|(8)--------------|
C|-----------------|-----------------|-----------------|-----------------|
G|-----------------|---------------5-|(5)------6-------|-----------------|
D|-----3---------6-|-6---------------|-----------------|---0-0-1---2-----|
   Q   Q   Q   E.S   Q   H     E S S   E E Q Q E E E.S   E S E.E E Q   E

F|-----------------|-----------------|---------------8-|(8)--------------|
C|-----------------|-----------------|-----------------|-----------------|
G|-----------------|---------------5-|(5)------6-------|-----------------|
D|-3-------------6-|(6)--------------|-----------------|-------------3---|
   Q   Q   Q   E.S   Q   H     E S S   E E Q Q E E E.S   E Q   E Q   Q

F|-----------------|-----------------|-----------------|-----------------|
C|-----------------|-----------------|-----------------|-----------------|
G|-----------------|---------------5-|(5)------6-------|-------6-6-----5-|
D|-3-3-3---------6-|(6)--------------|-----------------|-----------------|
   E.S E   Q   E.S   Q   H     E S S   E E Q Q E E Q     Q.  S S Q E S S

F|-----------------|-----------------|
C|-----------------|-----------------|
G|(5)------6-----8-|(8)----8-8-------|
D|-----------------|-----------8-8---|
   E E Q Q E E E.S   E Q S S E.S E E

F|-----------------|-----------------|-----------------|-----------------|
C|-----------------|-----------------|---------------3-|-5---------------|
G|-----------------|---------------5-|(5)------6-------|-----------------|
D|-3-------------6-|(6)--------------|-----------------|-----------------|
   Q   Q   Q   E.S   Q   H     E S S   E E Q Q E E E.S   E Q   E Q   Q

F|-----------------|-----------------|-----------------|-----------------|
C|-----------------|-----------------|---------------3-|-5---------------|
G|-----------------|---------------5-|(5)------6-------|-----------------|
D|-----3---------6-|-6---------------|-----------------|---0-0-1---2-----|
   Q   Q   Q   E.S   Q   H     E S S   E E Q Q E E E.S   E S E.E E Q   E

F|-----------------|-----------------|-----------------|-----------------|
C|-----------------|-----------------|---------------7-|(7)--------------|
G|-----------------|---------------5-|(5)------6-------|-----------------|
D|-3-------------6-|(6)--------------|-----------------|-----------------|
   Q   Q   Q   E.S   Q   H     E S S   E E Q Q E E E.S   E Q   E Q   Q

F|-----------------|-----------------|-----------------|-----------------|
C|-----------------|-----------------|---------------3-|-5---------------|
G|-----------------|---------------5-|(5)------6-------|---------------5-|
D|-----3---------6-|-6---------------|-----------------|-----------------|
   Q   Q   Q   E.S   Q   H     E S S   E E Q Q E E E.S   Q   H     E S S


F|---------------6/|-8---------------|
C|-----------------|-----------------|
G|(5)------6-------|-----5---3-------|
D|-----------------|-------------6---|
   E E Q Q E E E.S   E E E E E E E E

F|-----------------|-----------------|-----------------|-----------------|
C|-----------------|-----------------|---------------3-|-5---------------|
G|-----------------|---------------5-|(5)------6-------|-----------------|
D|-3-------------6-|-6---------------|-----------------|---------------3-|
   Q   Q   Q   E.S   Q   H     E S S   E E Q Q E E E.S   E E Q  Q  E S S

F|-----------------|-----------------|---------------8-|(8)--------------|
C|-----------------|-----------------|-----------------|-----10--8-------|
G|-----------------|---------------5-|(5)------6-------|-----------------|
D|(3)--5---1-3-5-6-|(6)--------------|-----------------|-----------------|
   Q   E S E.E.E S   Q   H     E S S   E E Q Q E E E.S   E E E E E E Q

F|-----------------|-----------------|-----------------|-----------------|
C|-----------------|-----------------|---------------3-|-5---------------|
G|-----------------|---------------5-|(5)------6-------|-----------------|
D|-3-------------6-|(6)--------------|-----------------|---0-0-1---2-----|
   Q   Q   Q   E.S   Q   H     E S S   E E Q Q E E E.S   E S E.E E Q   E

F|-----------------|-----------------|-----------------|-----------------|
C|-----------------|-----------------|-----------------|-----------------|
G|-----------------|---------------5-|(5)------6-----5-|(5)--------------|
D|-3-------------6-|(6)--------------|-----------------|-----------5-3---|
   Q   Q   Q   E.S   Q   H     E S S   E E Q Q E E E.S   E E Q   E.S E E

F|-----------------|-----------------|
C|-----------------|-----------------|
G|-3-------5-----6-|-----------------|
D|-----------------|-----------5-----|
   E E Q   E E E.S   H       E.S E E

Outro

F||------------------|-----------------|-----------------|-------17--------|
C||o-----------------|-----------------|-----------------|-------17--------|
G||o-----5-----------|-----5-----------|-----5-----------|-----5-----------|
D||--3-----4-------3-|-3-----4-------3-|-3-----4-------3-|-3-------------3-|
     Q   E.S Q   E E   Q   E.S Q   E E   Q   E.S Q   E E   Q   E.S Q     E

F|-----------------|-----------------|-----------------|------15/17-------||
C|-----------------|-----------------|-----------------|------15/17------o||
G|-----5-----------|-----5-----------|-----5-----------|-----------------o||
D|-3-----4-------3-|-3-----4-------3-|-3-----4-------3-|-3-------------3--||
   Q   E.S Q   E E   Q   E.S Q   E E   Q   E.S Q   E E   Q   E.S Q     E

F|-----------------|-----------------|-----------------|-----------------|
C|-----------------|-----------------|-----------------|-----------------|
G|-----5-----------|-----5-----------|-----5-----------|-----5-----------|
D|-3-----4-------3-|-3-----4-------3-|-3-----4-------3-|-3-----4-------3-|
   Q   E.S Q   E E   Q   E.S Q   E E   Q   E.S Q   E E   Q   E.S Q   E E

F|-----------------|-----------------|-----------------|-------17--------|
C|-----------------|-----------------|-----------------|-------17--------|
G|-----5-----------|-----5-----------|-----5-----------|-----------------|
D|-3-----4-------3-|-3-----4-------3-|-3-----4-------3-|-3-------------3-|
   Q   E.S Q   E E   Q   E.S Q   E E   Q   E.S Q   E E   Q   E.S  Q  E E

F|-----------------|-----------------|-----------------|-------5---------|
C|-----------------|-----------------|-----------------|-------5---------|
G|-----5-----------|-----5-----------|-----5-----------|-----5-----------|
D|-3-----4-------3-|-3-----4-------3-|-3-----4-------3-|-3-------------3-|
   Q   E.S Q   E E   Q   E.S Q   E E   Q   E.S Q   E E   Q   E.S  Q  E E

F|-17--------------|-----------------|-----------------|-------17--------|
C|-17--------------|-----------------|-----------------|-------17--------|
G|-----5-----------|-----5-----------|-----5-----------|-----------------|
D|-------4-------3-|-3-----4-------3-|-3-----4-------3-|-3-------------3-|
   Q   E.S Q   E E   Q   E.S Q   E E   Q   E.S Q   E E   Q   E.S  Q  E E

F|-----------------|-----------------|-----------------|-----------------|
C|-----------------|-----------------|-----------------|-----------------|
G|-----5-----------|-----5-----------|-----5-----------|-----------------|
D|-3-----4-------3-|-3-----4-------3-|-3-----4-------3-|-3-----3-------3-|
   Q   E.S Q   E E   Q   E.S Q   E E   Q   E.S Q   E E   Q   E.S  Q  E E

F|-----------------|-----------------|-----------------|----------------||
C|-----------------|-----------------|-----------------|----------------||
G|-----5-----------|-----5-----------|-----5-----------|-----5----------||
D|-3-----4-------3-|-3-----4-------3-|-3-----4-------3-|-3--------------||
   Q   E.S Q   E E   Q   E.S Q   E E   Q   E.S Q   E E   Q   E.S  H


Key to rhythm notations:

W - Whole Note/Semi-Brieve
H - Half Note/Minim
Q - Quarter Note/Crotchet       Q. - Dotted Quarter Note
E - Eight Note/Quaver           E. - Dotted Eight Note
S - Sixteenth Note/Semi-Quaver  S. - Dotted Sixteenth Note
Добавлено: 01.11.2015
Другие материалы по этой песне:
  • Аккорды и текст

Страница создана 15.04.2012
http://primanota.ru/dangelo/playa-playa-chords.htm
Привет, Гость.
Предлагаем пройти революционный курс по гитаре.
Подарок от PrimaNota.Ru, забирай!