PrimaNota.ru - самый крупный в мире бесплатный архив песенных текстов, аккордов, табулатур и нот


Dangelo - One Mo'gin - текст песни, бас-таба, видео

Регистрация Запомнить меня
Войти через:  Facebook Google Twitter Vk Yandex Mail.ru

Dangelo - One Mo'gin - текст песни, бас-таба, видео

Печатать
Просмотров: 96
Авторы текста: D’Angelo
                                       One Mo'Gin
                                        D'Angelo
                                    

Bass                                                               D'Angelo

As played by Pino Palladino

Tuning EbAbDbGb
       ___
      | 3 |
E E = Q   E

Intro

Gb|-----------------|-----------------|-----------------|-----------------|
Db|-----------------|-----------------|-----------------|-----------------|
Ab|-----------------|-----------------|-----------------|-----------------|
Eb|-----------------|-----------------|-----5-----------|-------------0---|
    W                 W                 Q   Q   H         H.          Q

Gb|-----------------|-----------------|
Db|-----------------|-----------------|
Ab|-----------------|-----------------|
Eb|-2---2-----------|-0---1-------2-3-|
    Q   Q   H         Q   Q   Q   E E

Gb|-----------------|-----------------|-----------------|-----------------|
Db|-----------------|-----------------|-----------------|-----------------|
Ab|-----------------|-----------------|-----------------|-----------------|
Eb|-5-------5---2-5-|(5)------5---5-2-|(2)----2---------|-0---1-------2-3-|
    H       Q   E.S   H       Q   E.S   Q.  S S Q   Q     Q   Q   Q   E.S

Gb|-----------------|-----------------|-----------------|-4---------------|
Db|-----------------|-----------------|-----------------|-----------------|
Ab|-----------------|-----------------|-----------------|-----------------|
Eb|-5-------5---2-5-|(5)------5---5-2-|(2)----2---------|-----0-------2-3-|
    H       Q   E.S   H       Q   E.S   Q.  S S Q   Q     Q   Q   Q   E.S

Gb|-----------------|-----------------|-----------------|-----------------|
Db|-----------------|-----------------|-----------------|-----------------|
Ab|-----------------|-----------------|-----------------|-----------------|
Eb|-5-------5---2-5-|(5)------5---5-2-|(2)----2---------|-0---1-------2-3-|
    H       Q   E.S   H       Q   E.S   Q.  S S Q   Q     Q   Q   Q   E.S

Gb|-----------------|--------------/9-|(9)--------------|/16--16--14------|
Db|-----------------|-----------------|-----------------|-----------14-11-|
Ab|-----------------|-----------------|-----------------|-----------------|
Eb|-5-------5---2-5-|(5)------5---5---|-----------------|-----------------|
    H       Q   E.S   H       Q   E.S   H       H         Q   Q   E.S  Q

Intro 2

Gb|-----------------|-----------------|-----------------|-----------------|
Db|-------7---------|---------2-------|-----------------|-4---7---9-7-----|
Ab|-5---------------|-2---------------|------/4---------|-------------4---|
Eb|-----------------|-----------------|-5---------------|-----------------|
    Q.  S S H         H       H         Q.  S S H         Q   Q   E E Q

Gb|-----------------|-----14--14------|-----------------|-----------------|
Db|-------7---------|---12----14------|-----------------|-4---7---9-7-----|
Ab|-5---------------|-14--------------|------/4---------|-------------4---|
Eb|-----------------|---------14------|-5---------------|-----------------|
    Q.  S S H         E E Q   Q         Q.  S S H         Q   Q   E E Q

Gb|-----------------|-----14------2---|-----------------|-----------------|
Db|-------7---------|---12----------2-|-----------------|---------4-2-----|
Ab|-5---------------|-14--------2-----|------/4---------|-------------4---|
Eb|-----------------|---------0-------|-5-----------0---|-2---------------|
    Q.  S S H         E E Q   E E E E   Q.  S S Q   Q     Q   Q   E E Q

Gb|-----------------|-----14--------4-|-4---------------|-3---------------|
Db|-------7---------|---12------------|-----------------|-----------------|
Ab|-5---------------|-14--------------|-----------------|-----------------|
Eb|-----------------|-------0-0-3-5-3-|-3---------------|-2-----------1---|
    Q.  S S H         E E E E E         W                 H.          Q

Gb|-----------------|-----------------|-----------------|-----------------|
Db|-----------------|-----------------|-----------------|-----------------|
Ab|-----------------|-----------------|-----------------|-----------------|
Eb|-5-------5---2-5-|(5)------5---5-2-|(2)----2---------|-0---1-------2-3-|
    H       Q   E.S   H       Q   E.S   Q.  S S Q   Q     Q   Q   Q   E.S

Gb|-----------------|-----------------|-----------------|----/4-----------|
Db|-----------------|-----------------|-----------------|-----------------|
Ab|-----------------|-----------------|-----------------|-----------------|
Eb|-5-------5---2-5-|(5)------5---5-2-|(2)----2---------|-------------2-3-|
    H       Q   E.S   H       Q   E.S   Q.  S S Q   Q     Q   Q   Q   E.S

Verse 1

Gb|-----------------|-----------------|-----------------|-----------------|
Db|-----------------|-----------------|-----------------|-----------------|
Ab|-----------------|-----------------|-----------------|-----------------|
Eb|-5-------5---2-5-|(5)------5---5-2-|(2)----2---0-0-0-|-0---1-------2-3-|
    H       Q   E.S   H       Q   E.S   Q.  S S E.S E.S   Q   Q   Q   E.S

Gb|-----------------|-----------------|-----------------|-----------------|
Db|-----------------|-----------------|-----------------|-6-8-8-6---------|
Ab|-----------------|-----------------|-----------------|-----------------|
Eb|-5-------5---2-5-|(5)------5---5-2-|(2)----2---------|-------------2-3-|
    H       Q   E.S   H       Q   E.S   Q.  S S Q   Q     E E E E Q   E.S

Gb|-----------------|-----------------|-----------------|----/4-----------|
Db|-----------------|-----------------|-----------------|-----------------|
Ab|-----------------|-----------------|-----------------|-----------------|
Eb|-5-------5---2-5-|(5)------5---5-2-|(2)----2---0-0-0-|-0-----------2-3-|
    H       Q   E.S   H       Q   E.S   Q.  S S Q   Q     Q   Q   Q   E.S

Gb|-----------------|-----------------|-----------------|----/18--16------|
Db|-----------------|-----------------|-----------------|-16----------16\-|
Ab|-----------------|-----------------|-----------------|-----------------|
Eb|-5-------5---2-5-|(5)------5---5-2-|(2)--------------|-----------------|
    H       Q   E.S   H       Q   E.S   Q   Q   H   H     Q   Q   Q   Q

Chorus 1

Gb|-----------------|-----------------|-----------------|-----------------|
Db|-------7---------|---------2-------|-----------------|-4---7---9-7-----|
Ab|-4/5-------------|-2---------------|------/4---------|-------------4-x-|
Eb|-----------------|-----------------|-5---------------|-----------------|
    S Q.  S H         Q   Q   Q   Q     Q.  S S H         Q   Q   E E E E

Gb|-11----14--------|-----14----12-11----|-----------------|---------4-2-----|
Db|-----------------|---12------------12-|-----------------|---4---------4---|
Ab|-------12--------|-14-----------------|------/4---------|-----------------|
Eb|-10--------------|-------0-12---------|-5---------------|-2---2-----------|
    Q.  S S H         E E E E E E  E  E    Q.  S S H         E E E E E E Q

Gb|-----------------|-----4-------2---|-----------------|-10--------------|
Db|---------7-------|---------2-------|-----------------|-----------------|
Ab|-5---------------|-2---------------|-----------------|-----------------|
Eb|-----------------|---------------3-|-5-----9---------|-9---------------|
    Q   Q   Q   Q     Q   Q   Q   E E   Q.  S S H         W

Gb|-----------------|-----14----------|-----------------|-----------------|
Db|---------7-------|---12----2-------|-5---------------|-4---------------|
Ab|-5---------------|-14--------------|-----------------|-----------------|
Eb|-----------------|-------0---------|-3-----------3-3-|-2---------------|
    Q   Q   Q   Q     E E E E Q   Q     H.          S S   W

Gb|-----------------|-----------------|-----------------|-----------------|
Db|-----------------|-----------------|-----------------|-----------------|
Ab|-----------------|-----------------|-----------------|-----------------|
Eb|-5-------5---2-5-|(5)------5---5-2-|(2)----2---------|-0---1-------2-3-|
    H       Q   E.S   H       Q   E.S   Q.  S S Q   Q     Q   Q   Q   E.S

Gb|-----------------|-----------------|-----------------|-10--9-----------|
Db|-----------------|-----------------|-----------------|-9---9-----------|
Ab|-----------------|-----------------|-----------------|-----------------|
Eb|-5-------5---2-5-|(5)------5---5-2-|(2)----2---------|-------------2-3-|
    H       Q   E.S   H       Q   E.S   Q.  S S Q   Q     Q   Q   Q   E.S

Verse 2

Gb|-----------------|-----------------|-----------------|-----------------|
Db|-----------------|-----------------|-----------------|---------2-------|
Ab|-----------------|-----------------|-----------------|-----------------|
Eb|-5-------5---2-5-|(5)------5---5-2-|(2)----2---------|-------------2-3-|
    H       Q   E.S   H       Q   E.S   Q.  S S Q   Q     Q   Q   Q   E.S

Gb|-----------------|-----------------|-----------------|-----------------|
Db|-----------------|-----------------|-----------------|-----------------|
Ab|-----------------|-----------------|-----------------|-----------------|
Eb|-5-------5---2-5-|(5)------5---5-2-|(2)----2---0-0-0-|-------------2-3-|
    H       Q   E.S   H       Q   E.S   Q.  S S E.S E.S   Q   Q   Q   E.S

Gb|-----------------|-----------------|-----------------|----/4-----------|
Db|-----------------|-----------------|-----------------|-----------------|
Ab|-----------------|-----------------|-----------------|-----------------|
Eb|-5-------5---2-5-|(5)------5---5-2-|(2)----2---------|-0-----------2-3-|
    H       Q   E.S   H       Q   E.S   Q.  S S Q   Q     Q   Q   Q   E.S

Gb|-----------------|-----------------|-----------------|---------2-------|
Db|-----------------|-----------------|-----------------|-2---4-----4-2---|
Ab|-----------------|-----------------|-----------------|-----------------|
Eb|-5-------5---2-5-|(5)------5---5-2-|(2)--------------|-----------------|
    H       Q   E.S   H       Q   E.S   Q   Q   H         Q   Q   E E Q  

Chorus 2

Gb|-----------------|-----14----------|-----------------|-----------------|
Db|-------7---------|---12------------|---------------2-|---------4-2-----|
Ab|-4/5-------------|-14------0-------|-----------2-4---|-------------4-0-|
Eb|-----------------|-------0---------|-5---------------|-2---------------|
    S Q.  S H         E E E E Q   Q     Q   Q   E E E E   Q   Q   E E E E
 
Gb|------------/9---|-----------------|-----------------|-----------16----|
Db|-------7---------|---------2-------|-----------------|-4---7-------16--|
Ab|-5---------------|-2---------------|------/4---------|---------------7-|
Eb|-----------------|-----------------|-5---------------|-----------------|
    Q.  S S Q   Q     Q   Q   Q   Q     Q.  S S H         Q   Q   E E E E

Gb|-----11--14------|-----14--------14|-----------------|-----15--14--15--|
Db|-----------------|---12--------12--|-----------------|-----16--14--16--|
Ab|-5-7-9---14------|-14--------12----|-----------------|-----------------|
Eb|-----------------|-------0-10------|-5-----0---------|-2---------------|
    E E Q   Q   Q     E E E E E E E E   Q.  S S Q  Q      E E Q   Q   Q

Gb|-----------------|-----14----------|-----------------|-----------------|
Db|---------7-------|---12----2-------|-5---------------|-----------------|
Ab|-5---------------|-14--------------|-----------------|-----------------|
Eb|-----------------|-------0---------|-3---------------|-2-----------2-2-|
    Q   Q   Q   Q     E E E E Q   Q     W                 H.          E E

Gb|-----------------|-----------------|-----------------|-----------------|
Db|-----------------|-----------------|-----------------|-----------------|
Ab|-----------------|-----------------|-----------------|-----------------|
Eb|-5-------5---2-5-|(5)------5---5-2-|(2)----2---------|-0---1-------2-3-|
    H       Q   E.S   H       Q   E.S   Q.  S S Q   Q     Q   Q   Q   E.S

Gb|-----------------|-----------------|-----------------|/11--------------|
Db|-----------------|-----------------|-----------------|-----------------|
Ab|-----------------|-----------------|-----------------|-----------------|
Eb|-5-------5---2-5-|(5)------5---5-2-|(2)----2---------|-------------2-3-|
    H       Q   E.S   H       Q   E.S   Q.  S S Q   Q     Q   Q   Q   E.S

Verse 3

Gb|-----------------|-----------------|-----------------|-----------------|
Db|-----------------|-----------------|-----------------|---------2-------|
Ab|-----------------|-----------------|-----------------|-----------------|
Eb|-5-------5---2-5-|(5)------5---5-2-|(2)----2---------|-0---1-------2-3-|
    H       Q   E.S   H       Q   E.S   Q.  S S Q   Q     Q   Q   Q   E.S

Gb|-----------------|-----------------|-----------------|-----------------|
Db|-----------------|-----------------|-----------------|-14--------------|
Ab|-----------------|-----------------|---------4/------|-13--------------|
Eb|-5-------5---2-5-|(5)------5---5-2-|(2)----2---------|-------------2-3-|
    H       Q   E.S   H       Q   E.S   Q.  S S H         H           E.S

Gb|-----------------|-----------------|-----------------|-----------------|
Db|-----------------|-----------------|-----------------|-----------------|
Ab|-----------------|-----------------|-----------------|-----------------|
Eb|-5-------5---2-5-|(5)------5---5-2-|(2)----2---------|-0---1-------2-3-|
    H       Q   E.S   H       Q   E.S   Q.  S S Q   Q     Q   Q   Q   E.S
                                                                  _____
                                                                 |  3  |
Gb|-----------------|-----------------|-----------------|-16--15--14----------|
Db|-----------------|-----------------|-----------------|-16--14----14-11-----|
Ab|-----------------|-----------------|-----------------|---------------------|
Eb|-5-------5---2-5-|(5)------5---5-2-|(2)--------------|-----------------2---|
    H       Q   E.S   H       Q   E.S   Q   Q   H         Q   Q   E E  E  Q

Chorus 3

Gb|-------7---------|---7---------2---|-----------------|-----------------|
Db|-------7---------|-7-------2-4-----|-----------------|-----2-----------|
Ab|-4/5-------------|-----5-----------|------/4---------|-----------------|
Eb|-----------------|-------3---------|-5---------------|-2------/6-------|
    S Q.  S H         E E E E E E Q     Q.  S S Q   Q     Q   Q   H

Gb|-----------------|-----------------|-----------------|-----------------|
Db|-------7---------|---------2-------|-----------------|-4---7-----------|
Ab|-5---------------|-2---------------|------/4-----7---|-----------------|
Eb|-----------------|-----------------|-5---------------|---------2\------|
    Q.  S S Q   Q     Q   Q   Q   Q     Q.  S S Q   Q     Q   Q   H

Gb|---11------------|-----14-----/15--|-----------------|-----2---2-------|
Db|-----4---7-------|---12------------|-----------------|-----------4-----|
Ab|-----------------|-14--------12----|-----------------|-------------4---|
Eb|-10--------------|-------0-12------|---5-5------0----|-2-------------2-|
    E E Q   Q   Q     E E E E E E E E   E E E S Q  Q      Q   Q   E E E E
                          ___
                         | 3 |
Gb|-----------------|-----------------|-----------------|-----------------|
Db|--------/7-------|----0-0-1-2------|-----------------|-----0-2/2---0---|
Ab|-5---------------|-2---------------|-----------------|-0-3-------------|
Eb|-----------------|-----------------|-2---------------|-----------------|
    Q   Q   Q   Q     Q.  S S S Q  Q    W                 E E E E Q   Q

Gb|-----------------|-----0-2/2---0---|-----------------|-----------------|
Db|-----------------|-0-3-------------|-----------------|-----------------|
Ab|-----------------|-----------------|-0---------------|-----------------|
Eb|-0---------------|-----------------|-----------------|---0-3-----0-3---|
    W                 E E E E Q   Q     W                 E E Q   E E Q

Outro

Gb|-----------------|-----------------|-----------------|-----------------|
Db|-----------------|-----------------|-----------------|-----------------|
Ab|-----------------|-----------------|-----------------|-----------------|
Eb|-5-------5---2-5-|(5)------5---5-2-|(2)----2---------|-0---1-------2-3-|
    H       Q   E.S   H       Q   E.S   Q.  S S Q   Q     Q   Q   Q   E.S

Gb|-----------------|-----------------|-----------------|-----------------|
Db|-----------------|-----------------|-----------------|-----2---4-------|
Ab|-----------------|-----------------|-----------------|-----------------|
Eb|-5-------5---2-5-|(5)------5---5-2-|(2)----2---------|-------------2-3-|
    H       Q   E.S   H       Q   E.S   Q.  S S Q   Q     Q   Q   Q   E.S

Gb|-----------------|-----------------|-----------------|-----------------|
Db|-----------------|-----------------|-----------------|-----------------|
Ab|-----------------|-----------------|-----------------|-----------------|
Eb|-5-------5---2-5-|(5)------5---5-2-|(2)----2---------|-------------2-3-|
    H       Q   E.S   H       Q   E.S   Q.  S S Q   Q     H       Q   E.S

Gb|-----------------|-----------------|-----------------|-----------------|
Db|-----------------|---------------4\|-2-----4---------|-----------------|
Ab|-----------------|-----------------|-----------------|-----------------|
Eb|-5-------5---2-5-|(5)------5---5---|-----------------|-0---1-------2-3-|
    H       Q   E.S   H       Q   E.S   Q.  S S Q   Q     Q   Q   Q   E.S

Coda

Q = 129

E E = E E

Gb|-----------------|-----------------|-------------------|-------------------|
Db|-----------7-6-4-|-6-8-9-8-4-------|-----6-6-6-----6-6-|-----6-5-6---6-6---|
Ab|-4---5---6-------|-----------4-7-4-|---6---------------|-------------------|
Eb|-----------------|-----------------|-4---------4-4-----|-4---------------5-|
    E E E E E E E E   E E E E E E E E   E.S E S S E.S E E   Q   E S S E E E E

Gb|-----------------|-----------------|-------------------|-----------------|
Db|---------------6-|-------6---6---6-|---6-6-5-6---6-6---|-----------6-6---|
Ab|---2---4---6-----|-----------------|-------------------|-----------------|
Eb|-----------------|-4---------------|-4---------------5-|-4-------------5-|
    E E E E E E E E   Q   E E E E E E   E E E S S E E E E   E E Q   E E E E

Gb|-----------------|-----------------|-----------------|-----------------|
Db|-----------------|-6-----6---6-6---|-------6---6-6---|-------6---6-6---|
Ab|---2---2-4-4---4-|-----------------|-----------------|-----------------|
Eb|-----------------|---------------4-|---------------4-|---------------4-|
    E Q   E E Q   E   E Q   E E E E E   Q.    E E E E E   Q.    E E E E E

Gb|-----------------|-----------------|-----------------|-------|
Db|-----------------|-6-----6---6-6---|---6-6-----6-6---|-6-6-6-|
Ab|-------2---4-4---|-----------------|-----------------|-------|
Eb|---4-------------|---------------4-|-------4-------4-|-------|
    E Q   Q   E Q     E Q   E E E E E   E E E E E E E E   E E E

Q = 86

Gb|-----------------|-10--------------|-16--------------|-13--------------|
Db|-11--------------|-9---------------|-14--------------|-----------------|
Ab|-12--------------|-----------------|-----------------|-----------------|
Eb|-----------------|-----------------|-----------------|-----------------|
    W                 W                 W                 W

Gb|-----------------|-11--------------|-18--------------||
Db|-----------------|-10--------------|-18--------------||
Ab|-------------2---|-----------------|-----------------||
Eb|-----------------|-----------------|-----------------||
    H       Q   Q     W                 W


Key to rhythm notations:

W - Whole Note/Semi-Brieve
H - Half Note/Minim
Q - Quarter Note/Crotchet       Q. - Dotted Quarter Note
E - Eight Note/Quaver           E. - Dotted Eight Note
S - Sixteenth Note/Semi-Quaver  S. - Dotted Sixteenth Note
Добавлено: 11.05.2016
Другие материалы по этой песне:

Страница создана 07.06.2012
http://primanota.ru/dangelo/one-mogin-chords.htm
Привет, Гость.
Предлагаем пройти революционный курс по гитаре.
Подарок от PrimaNota.Ru, забирай!