PrimaNota.ru - самый крупный в мире бесплатный архив песенных текстов, аккордов, табулатур и нот


Dangelo - Greatdayindamornin - бас-таба, видео

Регистрация Запомнить меня
Войти через:  Facebook Google Twitter Vk Yandex Mail.ru

Dangelo - Greatdayindamornin - бас-таба, видео

Печатать
Просмотров: 55
                                   Greatdayindamornin'
                                        D'Angelo
                                    

                                                                       D'Angelo
                                                                    Angie Stone
                                                                  Amir Thompson
Bass                                                             Charlie Hunter
(8 string guitar arr. for bass)

As played by Charlie Hunter

In 2/2

Intro

4 Bars Rest

|-----------------|-----------------|-----------------|-----------------|
|-----------------|-----------------|-----------------|-----------------|
|-----------------|-----------------|-----------------|-----------------|
|-----------------|---5-------------|---0-------------|-------5---5---5-|
  W                 E Q   E H         E Q   E H         Q   E E E E E E

|-----------------|-----------------|-----------------|-----------------|
|-----------------|-----------------|-----------------|-----------------|
|-----------------|-----------------|-----------------|-----------------|
|-5---------------|---5-------------|-------5---5---5-|-5---------------|
  W                 W                 Q   E E E E E E   W                

|-----------------|-----------------|-----------------|
|-----------------|-----------------|-----------------|
|-----------------|-----------------|-----------------|
|---5-------------|---5-------------|-----------------|
  E Q   E H         E Q   E H         W

Verse 1

|-----------------|-----------------|-----------------|-----------------|
|-----------------|-----------------|-----------------|-----------------|
|---8-------------|---5-------------|-----------------|-----------------|
|-----------------|-----------------|---5-------5---5-|(5)--------------|
  E Q   E H         E Q   E H         E Q   Q   Q   E   E E Q   H

|-----------------|-----------------|-----------------|-----------------|
|-----------------|-----------------|-----------------|-----------------|
|-8---------------|-3-5-------------|-------3---------|-----------------|
|-----------------|-----------------|--/5---------5---|-----------------|
  Q   Q   H         E Q   E H         E Q   Q.    Q     W

|-----------------|-----------------|-----------------|-----------------|
|-----------------|-----------------|-----------------|-----------------|
|---8-------------|-3-5-------------|-----------------|-----------------|
|-----------------|-----------------|---5---5-----5---|-----------------|
  E Q   E H         E Q   E H         E Q   Q.    Q     W

|-----------------|-----------------|-----------------|-----------------|
|-----------------|-----------------|-----------------|-----------------|
|---8-------------|-3-5-------------|-----------------|-----------------|
|-----------------|-----------------|---5---5-----5---|-----------------|
  E Q   E H         E Q   E H         E Q   Q.    Q     W

Verse 2

|-----------------|-----------------|-----------------|-----------------|
|-----------------|-----------------|-----------------|-----------------|
|---8-------------|-3-5-------------|-----------------|-----------------|
|-----------------|-----------------|---5---5-----5---|-----------------|
  E Q   E H         E Q   E H         E Q   Q.    Q     W

|-----------------|-----------------|-----------------|-----------------|
|-----------------|-----------------|-----------------|-----------------|
|-8---------------|-3-5-------------|-----------------|-----------------|
|-----------------|-----------------|---5---5-----5---|-----------------|
  Q   Q   H         E Q   E H         E Q   Q.    Q     W

|-----------------|-----------------|-----------------|-----------------|
|-----------------|-----------------|-----------------|-----------------|
|---8-------------|-3-5-------------|-----------------|-----------------|
|-----------------|-----------------|---5---5-----5---|-----------------|
  E Q   E H         E Q   E H         E Q   Q.    Q     W

|-----------------|-----------------|-----------------|-----------------|
|-----------------|-----------------|-----------------|-----------------|
|-8---------------|-3-5-------------|-----------------|-----------------|
|-----------------|-----------------|---5---5-----5---|-----------------|
  Q   Q   H         E Q   E H         E Q   Q.    Q     W

Chorus 1

||------------------|-----------------|-----------------|-----------------|
||o-----------------|-----------------|-----------------|-----------------|
||o---8-------------|-3-5-------------|-----------------|-----------------|
||------------------|-----------------|---5---5-----6---|-----------------|
    E Q   E H         E Q   E H         E Q   Q.    Q     W

|-----------------|-----------------|-----------------|------------------||
|-----------------|-----------------|-----------------|-----------------o||
|-8---------------|-3-5-------------|-----------------|-----------------o||
|-----------------|-----------------|---5---5-----6---|------------------||
  Q   Q   H         E Q   E H         E Q   Q.    Q     W

Interlude 1

|-----------------|-----------------|-----------------|-----------------|
|-----------------|-----------------|-----------------|-----------------|
|-----------------|-----------------|-----------------|-----------------|
|---5-------------|---5-------------|---5-------------|-------5---5-----|
  E Q   E H         E Q   E H         E Q   E H         Q   E Q   Q   E

|-----------------|-----------------|-----------------|-----------------|
|-----------------|-----------------|-----------------|-----------------|
|-----------------|-----------------|-----------------|-----------------|
|---5-------------|---5---------5-3-|---5-------------|-----------------|
  E Q   E H         E Q   E Q   E E   E Q   E H         W

|-----------------|
|-----------------|
|-----------------|
|-----------------|

Verse 3

|-----------------|-----------------|-----------------|-----------------|
|-----------------|-----------------|-----------------|-----------------|
|---8-------------|-3-5-------------|-----------------|-----------------|
|-----------------|-----------------|---5---5-----6---|-----------------|
  E Q   E H         E Q   E H         E Q   Q.    Q     W

|-----------------|-----------------|-----------------|-----------------|
|-----------------|-----------------|-----------------|-----------------|
|-8---------------|-3-5-------------|-----------------|-----------------|
|-----------------|-----------------|---5---8-----6---|-----------------|
  Q   Q   H         E Q   E H         E Q   Q.    Q     W

|-----------------|-----------------|-----------------|-----------------|
|-----------------|-----------------|-----------------|-----------------|
|---8-------------|-3-5-------------|-----------------|-----------------|
|-----------------|-----------------|---5---5-----6---|-----------------|
  E Q   E H         E Q   E H         E Q   Q.    Q     W

|-----------------|-----------------|-----------------|---4---6-----9---|
|-----------------|-----------------|-----------------|-----------------|
|--/8-------------|-3-5-------------|-----------------|-----------------|
|-----------------|-----------------|---5---5-----6---|-----------------|
  E Q   E H         E Q   E H         E Q   Q.    Q     E Q   Q     Q

Chorus 2

|-----------------|-----------------|-----------------|-----11--8~------|
|-----------10~---|-----------------|-----------------|-----------------|
|---8-------------|-3-5-------------|-----------------|-----------------|
|-----------------|-----------------|---5---5-----6---|-----------------|
  E Q   Q   Q   E   E Q   E H         E Q   Q.    Q     Q   Q   H

|-----------------|-----------------|-----------------|--/9~----7-------|
|-----------------|-----------------|-----------------|-----------9-7---|
|-8---------------|-3-5-------------|-----------------|-----------------|
|-----------------|-----------------|---5---8-----5---|-----------------|
  Q   Q   H         E Q   E H         E Q   Q.    Q     E Q   E E E Q

|-----------------|-----------------|-----------------|-----------------|
|-----------------|-----------------|-----------------|-----------------|
|-8---------------|-3-5-------------|-----------------|-----------------|
|-----------------|-----------------|---5---5-----6---|-----------------|
  Q   Q   H         E Q   E H         E Q   Q.    Q     W

|-----------------|-----------------|-----------------|-----------------|
|-----------------|-----------------|-----------------|-----------------|
|-8---------------|-3-5-------------|-----------------|-----------------|
|-----------------|-----------------|---5---5-----6---|-----------------|
  Q   Q   H         E Q   E H         E Q   Q.    Q     W

Interlude 2

|-----------------|-----------------|-----------------|-----------------|
|-----------------|-----------------|-----------------|-----------------|
|-8---------------|-3-5-------------|-----------------|-----------------|
|-----------------|-----------------|---5---5-----6---|-----------------|
  Q   Q   H         E Q   E H         E Q   Q.    Q     W

|-----------------|-----------------|-----------------|-----------------|
|-----------------|-----------------|-----------------|-----------------|
|-8---------------|-3-5-------------|-----------------|-----------------|
|-----------------|-----------------|-3-5---8-----6---|-----------------|
  Q   Q   H         E Q   E H         E Q   Q.    Q     W

|-----------------|-----------------|-----------------|-----6~----------|
|-----------------|-----------------|-----------------|-----------------|
|---8-------------|-3-5-------------|-----------------|-----------------|
|-----------------|-----------------|-3-5---5-----6---|-----------------|
  E Q   E H         E Q   E H         E Q   Q.    Q     Q   H.

                                                                         x4
||------------------|-----------------|-----------------|------------------||
||o-----------------|-----------------|-----------------|-----------------o||
||o-8---------------|-3-5-------------|-----------------|-----------------o||
||------------------|-----------------|-3-5---5-----6---|------------------||
    Q   Q   H         E Q   E H         E Q   Q.    Q     W

|-----------------|-----------------|-----------------|-----------------|
|-----------------|-----------------|-----------------|-----------------|
|-8\--------------|-3-5-------------|-----------------|-----------------|
|-----------------|-----------------|---5---5-----6---|-----------------|
  Q   Q   H         E Q   E H         E Q   Q.    Q     W

Chorus 3

|-----------------|-----------------|-----------------|-----------------|
|-----------------|-----------------|-----------------|-----------------|
|-8\--------------|-3-5-------------|-----------------|-----------------|
|-----------------|-----------------|---5---5-----6---|-----------------|
  Q   Q   H         E Q   E H         E Q   Q.    Q     W

|-----------------|-----------------|-----------------|-----------------|
|-----------------|-----------------|-----------------|----/7--/7~------|
|-8\--------------|-3-5\------------|-----------------|-----------------|
|-----------------|-----------------|---5---5-----6---|-----------------|
  Q   Q   H         E Q   E H         E Q   Q.    Q     Q   Q   H

|-----------------|-----------------|-----------------|-----------------|
|-----------------|-----------------|-----------------|-----------------|
|-8\--------------|-3-5-------------|-----------------|-----------------|
|-----------------|-----------------|---5---8-----6---|(6)--------------|
  Q   Q   H         E Q   E H         E Q   Q.    Q     H       H

|-----------------|-----------------|-----------------|-----------------|
|-----------------|-----------------|-----------------|-----------------|
|-8\--------------|-3-5-------------|-----------------|-----------------|
|-----------------|-----------------|---5---8-----6---|(6)--1---3---4---|
  Q   Q   H         E Q   E H         E Q   Q.    Q     Q   Q   Q   Q

Interlude 2

|-----------------|-----------------|-----------------|-----------------|
|-----------------|-----------------|-----------------|-----------------|
|-----------------|-----------------|-----------------|-----------------|
|---5-------------|---5-------------|---5-------------|-------5---5---3-|
  E Q   E H         E Q   E H         E Q   E H         Q   E Q   Q   E

|-----------------|-----------------|-----------------|-----------------|
|-----------------|-----------------|-----------------|-----------------|
|-----------5-----|-----------5-----|-----------------|-----------------|
|-5-----------5-3-|-5-----------5-3-|-5---------------|-------5---5---3-|
  Q   Q   E E E E   Q   Q   E E E E   Q   Q   H         Q   E Q   Q   E

|-----------------|-----------------|-----------------|-----------------|
|-----------------|-----------------|-----------------|-----------------|
|-----------------|-----------------|-----------------|-------2---2-----|
|-5-------0---2---|---5-------------|---5-----0-------|---------------3-|
  Q   Q   Q   Q     E Q   E H         E Q   E Q   Q     Q   E Q   Q   E

|-----------------|-----------------|-----------------|-----------------|
|-----------------|-----------------|-----------------|-----------------|
|---------5-------|-----------------|-----------------|-----------------|
|-5---------------|---5-------------|---5-------------|-----------------|
  Q   Q   Q   Q     E Q   E H         E Q   E Q   Q     W

                                                                         x4
||------------------|-----------------|-----------------|------------------||
||o-----------------|-----------------|-----------------|-----------------o||
||o-8---------------|-3-5-------------|-----------------|-----------------o||
||------------------|-----------------|---5---5-----6---|------------------||
    Q   Q   H         E Q   E H         E Q   Q.    Q     W

Chorus 4

|-----------------|-----------------|-----------------|-----------------|
|-----------------|-----------------|-----------------|-----------------|
|-8---------------|-3-5-------------|-----------------|-----------------|
|-----------------|-----------------|---5---5-----6---|-----------------|
  Q   Q   H         E Q   E H         E Q   Q.    Q     W

|-----------------|-----------------|-----------------|-----------------|
|-----------------|-----------------|-----------------|-----------------|
|---8-------------|-3-5-------------|-----------------|-----------------|
|-----------------|-----------------|---5---5-----6---|-----------------|
  E Q   E H         E Q   E H         E Q   Q.    Q     W

|-----------------|-----------------|-----------------|-----------------|
|-----------------|-----------------|-----------------|-----------------|
|-8---------------|-3-5-------------|-----------------|-----------------|
|-----------------|-----------------|---5---5-----6---|-----------------|
  Q   Q   H         E Q   E H         E Q   Q.    Q     W

|-----------------|-----------------|-----------------|----/10--10~-----|
|-----------------|-----------------|-----------------|-----------------|
|-8---------------|-3-5-------------|-----------------|-----------------|
|-----------------|-----------------|---5---5-----6---|-----------------|
  Q   Q   H         E Q   E H         E Q   Q.    Q     Q   Q   H

|-----------------|-----------------|-----------------|-----------------|
|-----------------|-----------------|-----------------|-----6---7-------|
|---8-------------|-3-5-------------|-----------------|-----------------|
|-----------------|-----------------|---5---5-----5---|-------------6---|
  E Q   E H         E Q   E H         E Q   Q.    Q     Q   Q   Q   Q
                                                                 ___
                                                                | 3 |
|-------2-5-2-----|-----------------|-----------------|---------2-0-------|
|---3---------1---|-----------------|-7-----7---7-7---|---3---5-----1-----|
|-----------------|-5-----------1---|-----------------|---------------3---|
|-----------------|---------1-------|-----------------|-------------------|
  E Q   E E E Q     Q   Q   Q   Q     Q   E Q   E Q     E Q   E E E E Q

|-----------------|-----------------|-----------------|-----8~--5-3-----|
|-----------------|----/7---7~------|-----------------|-------------4---|
|-8---------------|---5-------------|-----------------|-----------------|
|-----------------|-----------------|---5---5-----6---|(6)--------------|
  Q   Q   H         E E Q   H         E Q   Q.    Q     Q   Q   E E Q

|-----------------|---------2-------|-----------------|-----------------|
|-----------------|-------3---3-----|-----------------|-----------------|
|---8-----------3-|-5-----------1---|-------3-----5-3-|-1---------------|
|-----------------|-----------------|-5---------------|-----------------|
  E Q   E Q   E E   Q   E E E E Q     Q   E Q   E E E   Q   Q   H

|-----------------|-----------------|-----------------|-----------------|
|-3---------------|-----------------|-----------------|-----------------|
|-----------------|-3-5-------------|-----------------|-----------------|
|-----------------|-----------------|---5---5-----6---|(6)--------------|
  Q   Q   H         E Q   E H         E Q   Q.    Q     Q   Q   H

|-----------------|-----------------|-----------------|-----------------|
|-----------------|-------5-7-5-----|-----------------|---5-7---7~------|
|---8-----------3-|-5-----------5---|-----------------|-----------------|
|-----------------|-----------------|---5---5-----6---|-----------------|
  E Q   E Q.    E   Q   E E E E Q     E Q   Q.    Q     E E Q   H

|-----------------|-----------------|-----------------|-----------------|
|-----------------|-----------------|-----------------|-----------------|
|-8\--------------|---5\------------|-----------------|-----------------|
|-----------------|-----------------|---5---5-----5---|(5)------5---5---|
  H       H         E H       E Q     E Q   Q.    Q     Q   Q   Q   Q

|-----------------|-----------------|-----------------|-----------------|
|-----------------|-----------------|-----------------|-----------------|
|-8---------------|-3-5-------------|-----------------|-----------------|
|-----------------|-----------------|---5---5-----5---|(5)--------------|
  Q   Q   H         E Q   E H         E Q   Q.    Q     W

"Booty"

4 Bars Rest

|-----------------|-----------------|-----------------|-----------------|
|-----------------|-----------------|-----------------|---7-------------|
|-------5-----5---|-3---------------|-----------------|-----7-3-5-------|
|-3---3-----------|-----------------|-3---1-----------|-------------2---|
  Q   E Q   E Q     Q   Q   H         Q   Q   H         E E E E Q   Q

|-----------------|-----------------|-----------------|-----------------|
|-----------------|-----------------|-----------------|---7-------------|
|-------------2---|-3---------------|-----------------|-------3-5-------|
|-3---------------|---------2-------|---0-----3-------|-------------3---|
  Q   Q   Q   Q     Q   Q   Q   Q     E Q.    Q   Q     E E E E Q   Q

|-----------------|-----------------|-----------------|-7---------------|
|-----------------|-----------------|-----------------|-----------------|
|-------------2---|-3---------------|-----------------|---5---4-5-4-----|
|-3---3-----------|---------2-------|---2-----3-------|-------------3---|
  Q   Q   Q   Q     Q   Q   Q   Q     E Q.    Q   Q     E Q   E E E Q

|-----------------|-----------------|-----------------|-------7---------|
|-5---------------|-----------------|-----------------|-----------------|
|-------------2---|-3---------------|-----------------|-----------5-5-5-|
|-----3-----------|-------------2---|-3---------------|-----------------|
  Q   Q   Q   Q     Q   Q   Q   Q     H       H         Q.    Q   E E E

|-----------------|-----------------|-----------------|-----------------|
|-----------------|-------5---5-----|-----------------|-----------------|
|-------------2---|-3---------------|-----------------|---------5-------|
|-3---3-----------|-------------0---|-3---------------|-------------3---|
  Q   Q   Q   Q     Q   E Q   E Q     H       H         H       Q   Q

|-----------------|-----------------|-----------------|-----------------|
|-----------------|-----------------|-----------------|---7-------------|
|-------------2---|-3---------------|-----------------|---------7---5---|
|-3---3-----------|-------------0---|-3---------------|-----------------|
  Q   Q   Q   Q     Q   Q   Q   Q     H       H         E Q   E Q   Q

|-----------------|-----------------|-----------------|-----------------|
|-----------------|---------3---3---|-----------------|---7-------------|
|-------------2---|-3---------------|-----------------|-------4-5-------|
|-3---3-----------|-----------------|-1---1-----------|-------------3---|
  Q   Q   Q   Q     Q   Q   Q   Q     Q   Q   H         E Q   E Q   Q

|-----------------|-----------------|-----------------|-----------------|
|-----------------|---------3---4---|-----------------|---6-------------|
|-------------2---|-3---------------|-----------------|-------4-5-------|
|-3---------------|-----------------|-3---------------|-------------3---|
  H       Q   Q     Q   Q   Q   Q     H       H         E Q   E Q   Q

|-----------------|-----------------|-----------------|-----------------|
|-----------------|-----------------|---------5-------|---6-------------|
|-------------2---|-3---------------|-----------------|-------4-5-------|
|-3---------------|-----------------|-3---------------|-----------------|
  H       Q   Q     Q   Q   Q   Q     H       H         E Q   E Q   Q

|-----------------|-----------------|-----------------|-----------------|
|-----------------|-----------------|-----------------|----6------------|
|-------------2---|-3---------------|-----------------|--------6--------|
|-3---------------|-----------------|-3-------0-------|------------4----|
  H       Q   Q     Q   Q   Q   Q     H       H         Q  Q   Q   Q

|-----------------|-----------------|-----------------|-----------------|
|-----------------|---------1---3---|-----------------|---6-------------|
|-------------2---|-3---------------|-----------------|-------4-5-------|
|-3---------------|-----------------|-3---------------|-----------------|
  H       Q   Q     Q   Q   Q   Q     H       H         E Q   E Q   Q

|-----------------|-----------------|-----------------|-----------------|
|-----------------|-----------------|-----------------|-----------------|
|-------------2---|-3---------------|-----------------|-----------------|
|-3---------------|-----------------|-3---------------|---1---0-1-2-3---|
  H       Q   Q     Q   Q   Q   Q     H       H         E Q   E E E Q

|-----------------|-----------------|-----------------|-----------------|
|-----------------|-----------------|-----------------|-----------------|
|-----------------|-----------------|-6---3-4---------|-----------------|
|-3-----3---------|---------0---1---|-----------------|-3-----0-1---2---|
  Q.    Q   E Q     H       Q   Q     Q   E E H         Q   E E Q   Q

|-----------------|-----------------|-----------------|-----------------|
|-----------------|-2-2-------------|-----------------|-2-2-------------|
|-----------------|-----------------|-----------------|-----------------|
|-3-0-3-----------|-------0-1-2-3---|-3-0-3-----------|-------0-1-2-3---|
  E E Q   H         E Q   E E E Q     E E Q   H         E Q   E E E Q

|-----------------|-----------------|-----------------|-----------------|
|-----------------|-2-2-------------|-----------------|-2---------------|
|-----------------|-----------------|-----------------|-----------------|
|-3---3-----------|-------0-1-2-3---|-3-0-3-----------|-------0-1-2-3---|
  Q   Q   H         E Q   E E E Q     E E Q   H         Q.    E E E Q

|-----------------|-----------------|-----------------|-----------------||
|-----------------|-2---------------|-----------------|-----------------||
|-----------------|-----------------|-----------------|-----------------||
|-3---3-----------|-------0-1-2-3---|-3---3-----------|-----------------||
  Q   Q   H         E Q   E E E Q     Q   Q   H         W


Key to rhythm notations:

W - Whole Note/Semi-Brieve
H - Half Note/Minim
Q - Quarter Note/Crotchet       Q. - Dotted Quarter Note
E - Eight Note/Quaver           E. - Dotted Eight Note
S - Sixteenth Note/Semi-Quaver  S. - Dotted Sixteenth Note
Добавлено: 11.05.2016
Другие материалы по этой песне:
  • Аккорды и текст

Страница создана 11.05.2016
http://primanota.ru/dangelo/greatdayindamornin-chords.htm
Привет, Гость.
Предлагаем пройти революционный курс по гитаре.
Подарок от PrimaNota.Ru, забирай!