PrimaNota.ru - самый крупный в мире бесплатный архив песенных текстов, аккордов, табулатур и нот


Dangelo - Feel Like Makin' Love - текст песни, бас-таба, видео

Регистрация Запомнить меня
Войти через:  Facebook Google Twitter Vk Yandex Mail.ru

Dangelo - Feel Like Makin' Love - текст песни, бас-таба, видео

Печатать
Просмотров: 52
Авторы музыки: Gene McDaniels
Авторы текста: Gene McDaniels
                                 Feel Like Makin' Love
                                        D'Angelo
                                    

Bass                                                      Eugene McDaniels

As played by Pino Palladino

Tuning DGCF

Note: recorded version is 15 cents sharp - tune up to be in tune with
the record.

In 2/2

Intro

5 Bars Rest

F|-----------------|
C|-----------------|
G|-----------4-6---|
D|-----------------|
   H       E E Q
  
F|-----------------|-----------------|-----------------|-----------------|
C|-----------------|-----------------|-----------------|-----------------|
G|-----------------|-----------------|-----------------|-----------------|
D|-2---2---2---2---|-2---2---2---2---|-2---2---2---2---|-2---2---2---2---|
   E E Q   E E Q     E E Q   E E Q     E E Q   E E Q     E E Q   E E Q   

F|-----------------|-----------------|-----------------|-----------------|
C|/6---------------|-----------------|-----------------|-----------------|
G|-----------------|-----------4-6-4-|-----------------|-----------------|
D|-----2---2---2---|-2---2-----------|-2---2---2---2---|-2---2---2---0---|
   Q   Q   E E Q     E E Q   E E E E   E E Q   E E Q     E E Q   E E Q   
  
F|-----------------|-----------------|
C|-4---4---4---4---|-----------------|
G|-----------------|-----------4-6-4-|
D|-----------------|-2---2---2-------|
   E E Q   E E Q     E E Q   E E E E
  
Verse 1

F|-----------------|-----------------|-----------------|-----------------|
C|-----------------|-----------------|-9---------------|-9---------------|
G|-----------------|-----------------|-----------------|-----------------|
D|-2---2---2---2---|-2---2---2---2/--|-----7-7-7---7---|-----7---7---7/--|
   E E Q   E E Q     E E Q   E E Q     Q   E E E E Q     E E Q   E E Q 

F|-9---------------|-----------------|-----------------|-6---------------|
C|-----------------|-----------------|-----------------|-----------------|
G|-----7---7---7---|-7---7---7---6---|-5---5-5-5---4---|-----4---4-------|
D|-----------------|-----------------|-----------------|-------------0/--|
   E E Q   E E Q     E E Q   Q   Q     Q   E E E E Q     E E Q   Q   Q 

F|-----------------|-----------------|-----------------|-----------------|
C|-4---------------|-----------------|-9---------------|-9-------9-------|
G|-----------------|-----------------|-----------------|-----------------|
D|-----2---2---2---|-2---2---2---2/--|-----7-7-7---7---|-----7-------7/--|
   E E Q   E E Q     E E Q   E E Q     Q   E E E E Q     E E Q   E E Q 

F|-9---------------|-----------------|-11-----------11-|-----------------|
C|-----------------|-----------------|---------7-7-9---|-----------------|
G|-----7---7---7---|-7---7---7---6---|-----9-9---------|-4---4---4---4---|
D|-----------------|-----------------|-----------------|-----------------|
   E E Q   E E Q     E E Q   Q   Q     Q   E E E E E E   E E Q   E E Q 

Chorus 1

F|-----------------|-----------------|-----------------|-----------------|
C|-----------------|-----------------|-----------------|-----------------|
G|-----------------|-----------------|-----------------|-----------------|
D|-5---5---5---5---|-5---5---5---5---|-4---4---4-x-4---|-4---4---4---4-4-|
   Q   Q   Q   Q     Q   Q   E E Q     Q   Q   E E Q     Q   Q   Q   E E

F|-----------------|-----------------|-----------------|-----------------|
C|-2---------------|-----------------|-----------------|-----------------|
G|-----------------|-----------------|-4---4---4---4---|-----7---4-------|
D|---2-2---2---2---|-2---2---2---2---|-----------------|-5-----------4---|
   E E Q   Q   Q     E E Q   E E Q     E E Q   E E Q     Q   Q   Q   Q  

F|-----------------|-----------------|-----------------|-----------------|
C|-----------------|---------------7-|---------------6-|-6---------------|
G|-----------------|-----------------|-----------------|-----------------|
D|-5---5---5---5---|-5---5---5---5---|-4---4---4---4---|-----4---4---4---|
   Q   Q   Q   Q     Q   Q   E E E E   Q   Q   Q   E E   Q   Q   Q   Q  

F|-----------------|-----------------|-----------------|-----------------|
C|-----------------|-----------------|-----------------|-----------------|
G|-5---5---5---5---|---------5-------|-4---4---4---4---|-----4---4---4-4-|
D|-----------------|-2---5-------5---|-----------------|-2---------------|
   E E Q   E E Q     Q   Q   E E Q     E E Q   E E Q     Q   Q   Q   E E 

Interlude 1

F|-----------------|-----------------|-----------------|-----------------|
C|-----------------|-----------------|-----------------|-----------------|
G|-----------------|-----------------|-----------------|-----------------|
D|-2---2---2---2---|-2---2---2---2---|-2---2-2-2---2---|-2---2---2-------|
   E E Q   E E Q     E E Q   E E Q     E E E E E E Q     E E Q   E E Q   

Verse 2

F|-----------------|-----------------|-----------------|-----------------|
C|-----------------|-4-------4-------|---------9-------|-9-------9-------|
G|-----------------|-----------------|-----------------|-----------------|
D|-----2---2---2---|-----2-------2/--|-7---7-7-----7---|-----7-------7/--|
   Q   Q   E E Q     E E Q   E E Q     Q   E E E E Q     E E Q   E E Q 

F|-9---------------|-----------------|-----------------|-----------------|
C|-----------------|-----------------|-----4---7---9-9-|-----------------|
G|-----7---7-7-7---|-7---7---7---6---|-5---------------|-4---4---4-------|
D|-----------------|-----------------|-----------------|-------------2/--|
   E E Q   E E Q     E E Q   Q   Q     E E E E E E E E   E E Q   Q   Q 

F|-----------------|-----------------|-----------------|-----------------|
C|-----------------|-----------------|-9---------------|-9-------9-------|
G|-----------------|-----------------|-----------------|-----------------|
D|-2---2---2---2---|-2---2---2---2/--|-----7-7-7---7---|-----7-------7/--|
   E E Q   E E Q     E E Q   E E Q     Q   E E E E Q     E E Q   E E Q 

F|-9---------------|---------13------|-7---------------|-6-------6-------|
C|-----------------|---------14------|-----------------|-----------------|
G|-----7---7---7---|-7---7-----------|-----5---5---5---|-----4-------4\--|
D|-----------------|-----------------|-----------------|-----------------|
   E E Q   E E Q     E E Q   H         E E Q   E E Q     E E Q   E E Q 

Chorus 2

F|-----------------|-----------------|-----------------|-----------------|
C|-----------------|-----------7-----|-6-------6-------|-6-------6-------|
G|-----------------|-----------------|-----------------|-----------------|
D|-5---5---5-x-5---|-5---5---5---5---|-----4-x-----4---|-----4-------4\--|
   Q   Q   E E Q     Q   Q   E E Q     Q   E E E E Q     Q   Q   E E Q  

F|-----------------|-----------------|-----6---4-------|-----------------|
C|-4-------4-------|-4-------4-------|-----------------|-----------------|
G|-----------------|-----------------|-4-----------4---|-----4---3-------|
D|-----2-------2---|-----2-------2---|-----------------|-5---------3-4-4-|
   E E Q   E E Q     E E Q   E E Q     E E Q   E E Q     Q   Q   E E E E

F|-----------------|-----------------|-----------------|-----------------|
C|-----------------|-----------------|-6---------------|-----------------|
G|-----------------|-----------------|-----------------|-----------------|
D|-5---5---5---5---|-5---5---5---3/--|-----4---4-4-4---|-4---4---4---4---|
   E E Q   E E Q     Q   Q   E E Q     Q   Q   E E Q     E E Q   E E Q  

F|-----------------|-----------------|-----------------|-----------------|
C|-----4-4-7---9---|-----------------|-----------------|-----------------|
G|-5---------------|-5---5---5---5---|-4---4---4---4---|-4---4---4---4\--|
D|-----------------|-----------------|-----------------|-----------------|
   Q   E E Q   Q     E E Q   E E Q     E E Q   E E Q     E E Q   E E Q  

Chorus 3

F|-----------------|-----------------|-----------------|-----------------|
C|-----------------|-----------7---7-|---------x-------|-6-------6-------|
G|-----------------|-----------------|-----------------|-----------------|
D|-5---5---5---5---|-5---5---5---5---|-4---4-----4-4---|-----4-------4\--|
   Q   Q   Q   Q     Q   Q   E E E E   Q   Q   E E Q     E E Q   E E Q  

F|-----------------|-----------------|-6---------------|-9---8---7-------|
C|-4-------4-------|-4-------4-------|-----------------|-----------------|
G|-----------------|-------------4/--|-----4---4---4---|-----------------|
D|-----2-------2---|-----2-----------|-----------------|---9---9---------|
   E E Q   E E Q     E E Q   E E Q     E E Q   E E Q     E E E E E E Q

F|-----------------|-----------------|-----------------|-----------------|
C|-----------------|-----------------|-6-------6-------|/4-------6-------|
G|-----------------|-----------------|-----------------|-----------------|
D|-5---5---5---5---|-5---5---5---5/--|-----4-------4---|-----4-------4---|
   Q   Q   Q   Q     Q   Q   E E Q     Q   Q   Q   Q     E E Q   E E Q  

F|---------7-7-----|-7-7-------------|-----------------|-----------------|
C|-----------------|-----------------|-----------------|-----------------|
G|-5---5-------5---|-----5-------3---|-4---4-4-4---4---|-4---4---4-------|
D|-----------------|---------5-------|-----------------|-------------0/--|
   E E Q   E E Q     E E Q   E E Q     E E E E E E Q     E E Q   E E Q

Interlude 2

F|-----------------|-----------------|-----------------|-----------------|
C|-----------------|-------------2---|-----------------|-----------------|
G|-----------------|-----1---4-------|-----------------|---------4-4-6-6-|
D|-2---2---2---2---|-2---------------|-2---2---2---2---|-2---2-----------|
   E E Q   E E Q     E E Q   E E Q     E E Q   E E Q     E E Q   E E E E

F|-----------------|-----------------|-----------------|-----------------|
C|-4---------------|-2---------------|-----------------|---------------7-|
G|-----------------|---------------6-|-7-6-------------|-----------7-9---|
D|-----2---2---2---|-----2---2---2---|-----2---2---2---|-----2-----------|
   E E Q   E E Q     E E Q   E E Q     E E Q   E E Q     Q   Q   E E E E 

Instrumental

F|-----------------|-----------------|-----------------|-----------------|
C|-----------------|-4---------------|-9---------------|-9---------------|
G|-----------------|-----------------|-----------------|-----------------|
D|-----2---2---2---|-----2---2---2/--|-----7-7-----7---|-----7---7---7/--|
   Q   Q   E E Q     E E Q   E E Q     Q   E E E E Q     E E Q   E E Q 

F|-9---------------|-----------------|-----------------|-----------------|
C|-----------------|-----------------|-----4---7-7-9---|-----------------|
G|-----7---7---7---|-7---7---7---4/--|-5---------------|-4-------4-2-4---|
D|-----------------|-----------------|-----------------|-----------------|
   E E Q   E E Q     E E Q   Q   Q     Q   Q   E E Q     E E Q   E E Q 

F|-----------------|-----------------|-----------------|-----------------|
C|-----------------|-----------------|/11--------------|-----------------|
G|-----------------|-----------------|-----------------|-------------7/--|
D|-2---2---2---2---|-2---2---2---2/--|-----7-7-7---7/--|-7---7---7-------|
   E E Q   E E Q     E E Q   E E Q     Q   E E E E Q     E E Q   E E Q 

F|-----------------|-----------------|-----------------|-6-----------12--|
C|-----------------|-----------------|-----------------|-----------------|
G|-7---7---7---7---|-7---7---7-------|-5---5---5-5-4---|-----4---4-------|
D|-----------------|-------------7/--|-----------------|-----------------|
   E E Q   E E Q     E E Q   Q   Q     E E Q   E E Q     E E Q   E E Q 

Verse 3

F|-9/--------------|-9-------9-------|-----------------|-----------------|
C|-----------------|-----------------|-9---------------|-9---------------|
G|-----7---7---7---|-----7-----------|-----------------|-----------------|
D|-----------------|-------------7/--|-----7-7-7---7---|-----7---7---7/--|
   Q   Q   E E Q     E E Q   E E Q     Q   E E E E Q     E E Q   E E Q 

F|-14--------------|-----------------|-----------------|-----------------|
C|-----------------|-----------------|-----4---7-7-9---|-----------------|
G|-----7---7---7---|-7---7---7-------|-5---------------|-----4-2-4-------|
D|-----------------|-------------7---|-----------------|-2---------------|
   E E Q   E E Q     E E Q   Q   Q     Q   Q   E E Q     E E E E H 

F|-----------------|-----------------|-----------------|-----------------|
C|---------2-------|---------4-------|-9---------------|/9-------9-------|
G|-2---------------|-----------------|-----------------|-----------------|
D|-----2-------2---|-2---2-------2/--|-----7---7---7---|-----7-------7/--|
   E E Q   E E Q     E E Q   E E Q     Q   Q   E E Q     E E Q   E E Q 

F|-----------------|-----------------|-----------------|-----------------|
C|-----------------|-----------------|-----------------|-----------------|
G|-7---7---7---6---|-7-7-------------|-5---5---5---5---|-4---4---4---4---|
D|-----------------|-----9---7---9---|-----------------|-----------------|
   E E Q   E E Q     E E Q   Q   Q     E E Q   Q   Q     E E Q   E E Q 

Chorus 4

F|-----------------|-----------------|-----------------|-----------------|
C|-----------------|-----------7-----|---------------6-|---------6-------|
G|-----------------|-----------------|-----------------|-----------------|
D|-5---5---5---5---|-5---5---5---5---|-4---4---4---4---|-4---4-------4---|
   Q   Q   Q   Q     Q   Q   E E Q     Q   Q   Q   E E   Q   Q   Q   Q  

F|-----------------|-----------------|-6-------6-------|-----------------|
C|-4---------------|-----------------|-----------------|-7-7-2---4---6---|
G|-----------------|-4---------------|-----4-------4---|-----------------|
D|-----2---2---2---|-----2---2---2/--|-----------------|(5-5-0---2---4)--|
   E E Q   E E Q     E E Q   E E Q     E E Q   E E Q     E E Q   Q   Q
                                                         Octaver on......

F|-----------------|-----------------|-----------------|-----------------|
C|---------7-------|-7-------7-------|---------6-------|---------6-------|
G|-----------------|-----------------|-----------------|-----------------|
D|-5---5-------5---|-----5-------5---|-4---4-------4---|-4---4-------4/--|
   Q   Q   E E Q     E E Q   E E Q     Q   Q   E E Q     E E Q   E E Q  
   Octaver off

F|---------7-------|-----------------|-----------------|-------4-6-4-----|
C|-----------------|-7---9---7-------|-----------------|-------------6---|
G|-5---5-----5-5---|-------------5---|-4---4---4---4---|-4---4-----------|
D|-----------------|-----------------|-----------------|-----------------|
   E E Q   E E Q     E E Q   E E Q     E E Q   E E Q     Q   E E E E Q

Chorus 5

F|-----------------|-----------------|-----------------|-----------------|
C|---------7-------|-7-------7-------|-6-------6-----4-|-6-4-------------|
G|-----------------|-----------------|-------------6---|-----------------|
D|-5---5-------5---|-----5-------5---|-----4-----4-----|-----4---4---4/--|
   Q   Q   Q   Q     E E Q   E E Q     E E Q   E E E E   E E Q   Q   Q  

F|---------11------|-----------------|---------6-------|-----------------|
C|-----------------|-7---7---4-------|-----------------|-----------------|
G|-9---9-------9---|-------------7---|-4---4-----x-4---|-----------------|
D|-----------------|-----------------|-----------------|-----------2-4---|
   E E Q   E E Q     Q   Q   E E E E   E E Q   E E Q     H       E E Q

F|-----------------|-----------------|-----------------|-----------------|
C|-----------------|---------7-------|---------6-------|-4-------6-------|
G|-----------------|-----------------|-----------------|-----------------|
D|-5---5---5---5---|-5---5-------5---|-4---4-------4---|-----4-------4/--|
   E E Q   E E Q     E E Q   E E Q     Q   Q   E E Q     Q   Q   E E Q  

F|-----------------|---------7-------|-----------------|-------4-6-4-----|
C|-----4---7-7-9---|-----------------|-----------------|-------------6---|
G|-5---------------|-5---5-------5---|-4---4---4---4---|-4---4-----------|
D|-----------------|-----------------|-----------------|-----------------|
   Q   Q   E E Q     E E Q   E E Q     E E Q   E E Q     Q   E E E E Q

Instrumental 2

F|-----------------|-----------------|-----------------|-----------------|
C|---------4-------|---------4-------|-4---------------|-------4---------|
G|-----------------|-----------------|-----------------|-----------4-6-4-|
D|-2---2-------2---|-2---2-------2---|---2-2---2---2---|-2---2-----------|
   E E Q   E E Q     E E Q   E E Q     E E Q   E E Q     E E E E E E E E

F|-----------------|-----------------|-----------------|-----------------|
C|-4---------------|-----------------|-----------------|-----------------|
G|---4-6-4---------|-----------------|-----------------|-----------4-6-4-|
D|---------2---2---|-2---2---2---2---|-2---2---2---2---|-2---2-2-2-------|
   E E E E E E Q     E E Q   E E Q     E E Q   E E Q     E E E E E E E E  

F|-----------------|-----------------|-----------------|-----------------|
C|-4---------------|-4-------4-------|-4-------4-------|-4-------------4-|
G|---4-6-4---------|-----------------|-----------------|-----------------|
D|---------2---2---|-----2-------2---|-----2-------2---|-----2---0---2---|
   E E E E E E Q     E E Q   E E Q     E E Q   E E Q     E E Q   E E E E

F|-----------------|-----------------|-----------------|-----------------|
C|-4-------4-------|-4-------4-------|---------4-------|-4---------------|
G|-----------------|-----------------|-----------------|-----------------|
D|-----2-------2---|-----2-------2---|-2---2-------2---|-----2---2---2/--|
   E E Q   E E Q     E E Q   E E Q     E E Q   E E Q     E E Q   E E Q 

F|-----------------|-----------------|-----------------|-----------------|
C|-4\--------------|---------4-----2-|-4-------4-------|-4-------2-4-2---|
G|-----------------|-----------------|-----------------|-------4---------|
D|---------2---2---|-2---2-------2---|-----2-------2---|-----------------|
   H       E E Q     E E Q   E E E E   E E Q   E E Q     E E E E E E Q        

F|-----------------|-----------------|-----------------|-----------------|
C|-4\--------------|-4---------------|-4-------4-------|-----2-----------|
G|-----------------|-----------------|-----------------|---4-------------|
D|---------2---2---|-----2---2---2---|-----2-------2---|-2-------2-------|
   H       E E Q     E E Q   E E Q     E E Q   E E Q     E E E E E E Q   

Instrumental 3

F|-----------------|-----------------|-----------------|-----------------|
C|---------4-------|---------4-------|-9-------9-------|-9-------9-------|
G|-----------------|-----------------|-----------------|-----------------|
D|-2---2-------2---|-2---2-------2/--|-----7-------7---|-----7-------7/--|
   E E Q   E E Q     E E Q   E E Q     E E Q   E E Q     E E Q   E E Q 

F|-----------------|-----------------|-11--------------|---------6-------|
C|-11--------------|-----------------|---------7---9---|-----------------|
G|-----7---7---7---|-7---7---7-------|---9-9-----------|-4---4-------4\--|
D|-----------------|-------------7/--|-----------------|-----------------|
   E E Q   E E Q     E E Q   Q   Q     E E Q   Q   Q     E E Q   E E Q 

F|-----------------|-----------------|-----------------|-----------------|
C|---------4-------|-4-------4-------|-9-------9-------|/9-------9-------|
G|-----------------|-----------------|-----------------|-----------------|
D|-2---2-------2---|-----2-------2/--|-----7-------7---|-----7-------7/--|
   E E Q   E E Q     E E Q   E E Q     Q   Q   E E Q     E E Q   E E Q 

F|---------11------|-9---------------|-----------------|---------6-------|
C|-----------------|-----------------|-----------------|-----------------|
G|-7---7-7-----7---|-----7---7-------|-5---5---5---2/--|-4---4-------4\--|
D|-----------------|-------------7/--|-----------------|-----------------|
   E E Q   E E Q     E E Q   Q   Q     E E Q   Q   Q     E E Q   E E Q 

Chorus 6

F|-----------------|-----------------|-----------------|-----------------|
C|-----------------|-----------------|-----------6-----|---------4-6-----|
G|-----------------|-----------------|-----------------|-----------------|
D|-5---5---5---5---|-5---5---5---5---|-4---4---4---4---|-4---4-------4---|
   Q   Q   Q   Q     Q   Q   Q   Q     Q   Q   E E Q     Q   Q   E E Q  

F|-----------------|-----------------|-6-------6-6-----|-----------------|
C|-4---------------|-----------------|-----------------|---2-------------|
G|-----------------|-4---------------|-----4-------4---|-----------------|
D|-----2---2---2---|-----2---2---2/--|-----------------|-----0---2---4---|
   E E Q   E E Q     E E Q   E E Q     E E Q   E E Q     E E Q   Q   Q

F|-----------------|-----------------|-----------------|-----------------|
C|---------7-------|-7-------7-----7-|-6-------6-------|-4-------6-------|
G|-----------------|-----------------|-----------------|-----------------|
D|-5---5-------5---|-----5-------5---|-----4-------4---|-----4-------4/--|
   Q   Q   E E Q     E E Q   E E Q     E E Q   E E Q     E E Q   E E Q  

F|-----------------|-7---------------|-6-------6-------|-6-------6-------|
C|-----4---7---9---|-----------------|-----------------|-----------------|
G|-5---------------|-----5---5---5---|-----4-----x-4---|-----4-------4---|
D|-----------------|-----------------|-----------------|-----------------|
   Q   Q   Q   Q     E E Q   E E Q     E E Q   E E Q     E E Q   E E Q

Chorus 7

F|-----------------|-----------------|-----------------|-----------------|
C|-7---------------|-7-----------4---|-6---------------|-6-------6-------|
G|-----------------|---------4-7---7-|-----------------|-----------------|
D|-----5---5---5---|-----5-----------|-----4-x-4---4---|-----4-------4---|
   E E Q   Q   Q     Q   Q   E E E E   Q   Q   Q   Q     E E Q   E E Q  

F|-----------------|-----------------|-11--------------|-9---------------|
C|-4-------4-------|-4-------4-------|-----------------|-----------------|
G|-----------------|-----------------|-----4---4---4---|-----6---4---2---|
D|-----2-------2---|-----2-------2/--|-----------------|-----------------|
   E E Q   E E Q     E E Q   E E Q     E E Q   E E Q     E E Q   Q   Q

F|-----------------|-----------------|-----------------|-----------------|
C|---------7-------|-7-----------4---|-6-------6-------|-4-------4-6-----|
G|-----------------|---------4-7---7-|-----------------|-----------------|
D|-5---5-------5---|-----5-----------|-----4-------4---|-----4-------4---|
   Q   Q   E E Q     E E Q   E E E E   E E Q   E E Q     E E Q   E E Q  

F|-7-------7-------|-7-------7-------|-6---------------|-----------------|
C|-----------------|-----------------|-----------------|-------------3---|
G|-----5-------5---|-----5-5-----5/--|-----4---4---4---|-2---3---4-------|
D|-----------------|-----------------|-----------------|-----------------|
   E E Q   E E Q     E E E E E E Q     E E Q   E E Q     Q   Q   Q   Q

Chorus 8/Outro

F|-----------------|-----------------|-----------------|-----------------|
C|-7-------7-------|-7---------------|-6-------6-------|-6-------4-6-----|
G|-----------------|-----------------|-----------------|-----------------|
D|-----5-------5---|-----5-------5---|-----4-------4---|-----4-------4---|
   E E Q   E E Q     E E Q   Q   Q     E E Q   E E Q     Q   Q   E E Q  

F|-----------------|-----------------|-6-------6-------|-6-------6-------|
C|-4-------4-------|-4------/4-------|-----------------|-----------------|
G|-----------------|-----------------|-----4-------4---|-----4-------4---|
D|-----2-------2---|-----2-------2/--|-----------------|-----------------|
   E E Q   E E Q     E E Q   E E Q     E E Q   E E Q     E E Q   E E Q

F|-----------------|-----------------|-----------------|-----------------|
C|-7-------7-------|-7-------7-------|-6-------6-------|-6-------6-------|
G|-----------------|-----------------|-----------------|-----------------|
D|-----5-------5---|-----5-------5---|-----4-------4---|-----4-------4/--|
   E E Q   E E Q     E E Q   E E Q     E E Q   E E Q     E E Q   E E Q  

F|-11--11-13-11--11--|-----------------|-----------------|-----------------|
C|-------------------|-----------------|-----------------|-----------------|
G|-------------------|-5---5---5---5---|-4---------------|(4)--------------|
D|-10--10-12-10--10--|-----------------|-----------------|-----------------|
   Q   E  E  Q   Q     E E Q   E E Q     W                 W

F|-----------------|-----------------|-----------------|-----------------|
C|-----------------|-----------------|-----------------|-----------------|
G|-----------------|-----------------|-----------------|-----------------|
D|-----------------|-----------------|-----------------|-----------------|
   W                 W                 W                 W

Coda

F|-----------------|-----------------|-----------------|-----------------|
C|---9p7---6---6---|-6-----6-6-------|-----------------|-----------------|
G|-----------------|-----------------|-4-----4-4-------|-3-2---2-2---2---|
D|-----------------|-----------------|-----------------|-----------------|
   E E Q   Q   Q     Q.    E H         Q.    E H         E Q   E Q   Q

F|-----------------|-----------------|-----------------|-----------------|
C|---9p7---6---6---|-6-----6-6-------|-----------------|-----------------|
G|-----------------|-----------------|-4-----4-4-------|-3-2---2-2---2---|
D|-----------------|-----------------|-----------------|-----------------|
   E E Q   Q   Q     Q.    E H         Q.    E H         E Q   E Q   Q

F|-----------------|-----------------||
C|---9p7---6---6---|-6-----6-6-------||
G|-----------------|-----------------||
D|-----------------|-----------------||
   E E Q   Q   Q     Q.    E H


Key to rhythm notations:

W - Whole Note/Semi-Brieve
H - Half Note/Minim
Q - Quarter Note/Crotchet       Q. - Dotted Quarter Note
E - Eight Note/Quaver           E. - Dotted Eight Note
S - Sixteenth Note/Semi-Quaver  S. - Dotted Sixteenth Note
Добавлено: 11.05.2016
Другие материалы по этой песне:

Страница создана 26.07.2012
http://primanota.ru/dangelo/feel-like-makin-love-chords.htm
Привет, Гость.
Предлагаем пройти революционный курс по гитаре.
Подарок от PrimaNota.Ru, забирай!