PrimaNota.ru - самый крупный в мире бесплатный архив песенных текстов, аккордов, табулатур и нот


Dangelo - Devil's Pie - текст песни, бас-таба, видео

Регистрация Запомнить меня
Войти через:  Facebook Google Twitter Vk Yandex Mail.ru

Dangelo - Devil's Pie - текст песни, бас-таба, видео

Печатать
Просмотров: 115
Авторы текста: D’Angelo
                                    Devil's Pie
                                      D'Angelo

Bass                                                                  D'Angelo
                                                     Christopher Edward Martin

Tuning: DGCF

Sample loops throughout song

F|---------------------------------|---------------------------------|
C|---------------------------------|---------------------------------|
G|-3---5-3-------------------------|---------------------------------|
D|-----------------6-------1---0---|-----1---4-----1-4---4-1-4-------|
   E   S S Q       Q       E   E     E   E   E.    S E   S S Q

F|---------------------------------|---------------------------------|
C|---------------------------------|---------------------------------|
G|-3---5-3-------------------------|---------------------------------|
D|-----------------6-------1---0---|-----1---4-----1-4---4-1-4---4---|
   E   S S Q       Q       E   E     E   E   E.    S E   S S E   E


Key to rhythm notations:

W - Whole Note/Semi-Brieve
H - Half Note/Minim
Q - Quarter Note/Crotchet       Q. - Dotted Quarter Note
E - Eight Note/Quaver           E. - Dotted Eight Note
S - Sixteenth Note/Semi-Quaver  S. - Dotted Sixteenth Note
Добавлено: 01.11.2015
Другие материалы по этой песне:
  • Аккорды и текст

Страница создана 08.04.2012
http://primanota.ru/dangelo/devils-pie-chords.htm
Привет, Гость.
Предлагаем пройти революционный курс по гитаре.
Подарок от PrimaNota.Ru, забирай!