PrimaNota.ru - самый крупный в мире бесплатный архив песенных текстов, аккордов, табулатур и нот


Dangelo - Brown Sugar - текст песни, бас-таба, видео

Регистрация Запомнить меня
Войти через:  Facebook Google Twitter Vk Yandex Mail.ru

Dangelo - Brown Sugar - текст песни, бас-таба, видео

Печатать
Просмотров: 66
Авторы: D’Angelo, Ali Shaheed Muhammad

Tabbed by Dan Bogosian
Bassist for Spillway: http://spillwaymusic.bandcamp.com/
Music writer: www.dlbogosian.com

INTRO

G--X----10----X----9~~~~~~-X-10----------------------
D-------------------------------8~-------------------
A------------------------------------7-8-9-----------
E-------------------------------------------9--7~~~--

G----------------
D--7h9-----------
A-------8--7~~---
E----------------

LITERALLY THE REST OF THE ENTIRE SONG


G--------------------------------
D-------(7)9-7~~~-7-9~~~-9--------
A---7~~~------------------8~~~-8-
E--------------------------------

rinse & repeat
Добавлено: 01.11.2015
Другие материалы по этой песне:
  • Аккорды и текст

Страница создана 04.03.2012
http://primanota.ru/dangelo/brown-sugar-chords.htm
Привет, Гость.
Предлагаем пройти революционный курс по гитаре.
Подарок от PrimaNota.Ru, забирай!