PrimaNota.ru - самый крупный в мире бесплатный архив песенных текстов, аккордов, табулатур и нот


Dangelo - Africa - текст песни, бас-таба, видео

Регистрация Запомнить меня
Войти через:  Facebook Google Twitter Vk Yandex Mail.ru

Dangelo - Africa - текст песни, бас-таба, видео

Печатать
Просмотров: 29
Авторы текста: D’Angelo
                                         Africa
                                        D'Angelo
                                    

Bass                                                               D'Angelo
                                                              Luther Archer
                                                                Angie Stone
                                                             Ahmir Thompson

As played by D'Angelo

Intro

16 Bars Rest

|-9---------------|-----------------|-----------------|-----------------|
|-----------------|-7---------------|-----------------|-----------------|
|-----------------|-----------------|---5-------------|-----------------|
|-----------------|-----------------|-----------------|-0---------------|
  H       H         H       H         E H       E Q     H       H       

                                                                         x3
||------------------|-----------------|-----------------|------------------||
||o-----------------|-7---------------|-----------------|-----------------o||
||o-----------------|-----------------|---5-------------|-----------------o||
||------------------|-----------------|-----------------|-0----------------||
    W                 H       H         E H       E Q     H       H       

Verse 1

|-----------------|-----------------|-----------------|-----------------|
|-----------------|-----------------|-----------------|-----------------|
|-----------------|-----------------|---5-------------|-----------------|
|-0---------------|-5---------------|-----------------|-0---------------|
  H       H         H       H         E H       E Q     H       H    

|-----------------|-----------------|-----------------|-----------------|
|-----------------|-----------------|-----------------|-----------------|
|-----------------|-----------------|---5-----5-------|-----------------|
|-0---------------|-5---------------|-----------------|-0---------------|
  H       H         H       H         E Q.    Q   Q     H       H       

Interlude 1

||------------------|-----------------|-----------------|------------------||
||o-----------------|-7---------------|-----------------|-----------------o||
||o-----------------|-----------------|---5-------------|-----------------o||
||------------------|-----------------|-----------------|-0----------------||
    W                 H       H         E H       E Q     H       H     

Verse 2

|-----------------|-----------------|-----------------|-----------------|
|-----------------|-----------------|-----------------|-----------------|
|-----------------|-----------------|---5-----5-------|-----------------|
|-0---------------|-5---------------|-----------------|-0---------------|
  H       H         H       H         E Q   S E S Q.    H       H     

|-----------------|-----------------|-----------------|-----------------|
|-----------------|-----------------|-----------------|-----------------|
|-----------------|-----------------|---5-----5-------|-----------------|
|-0---------------|-5---------------|-----------------|-0---------------|
  H       H         H       H         E Q   S S H       H       H      

|-----------------|-----------------|-----------------|-----------------|
|-----------------|-----------------|-----------------|-----------------|
|-----------------|-----------------|-5-5-------------|-----------------|
|-x---------------|-5---------------|-----------------|-0---------------|
  Q   Q   H         H       H         E.E S E H         H       H     

|-----------------|-----------------|-----------------|-----------------|
|-----------------|-----------------|-----------------|-----------------|
|-----------------|-----------------|---5-----5-------|-----------------|
|-0---------------|-5---------------|-----------------|-0---------------|
  H       H         H       H         E Q   S E S Q.    H       H     

Bridge

|-----------------|-----------------|-----------------|-----------------|
|-----------------|-----------------|-----------------|-----------------|
|-----------------|-5---------------|-----------------|-----------------|
|-----------------|-----------------|-3---------------|-----------------|
  W                 H       H         H       H         W

|-----------------|-----------------|-----------------|-----------------|
|-----------------|-----------------|-----------------|-----------------|
|-----------------|-5---------------|-----------------|-----------------|
|-----------------|-----------------|-0---------------|-----------------|
  W                 H       H         H       H         W

|-----------------|-----------------|-----------------|-----------------|
|-----------------|-----------------|-----------------|-----------------|
|-----------------|-5---------------|-----------------|-----------------|
|-----------------|-----------------|-0---------------|-----------------|
  W                 H       H         H       H         W

|-----------------|-----------------|
|-7---------------|-----------------|
|-----------------|-5-------2-------|
|-----------------|-----------------|

Interlude 2

|-----------------|-----------------|-----------------|-----------------|
|-----------------|-7---------------|-----------------|-----------------|
|-----------------|-----------------|---5-------------|-----------------|
|-0---------------|-----------------|-----------------|-0---------------|
  H       H         H       H         E H       E Q     H       H   

|-----------------|-----------------|-----------------|-----------------|
|-----------------|-7---------------|-----------------|-----------------|
|-----------------|-----------------|---5-------------|-----------------|
|-----------------|-----------------|-----------------|-0---------------|
  W                 H       H         E H       E Q     H       H  

Verse 3

|-----------------|-----------------|-----------------|-----------------|
|-----------------|-----------------|-----------------|-----------------|
|-----------------|-----------------|---5--5----------|-----------------|
|-0---------------|-5---------------|-------------5---|-0---------------|
  H       H         H       H         E E. E. Q   Q     H       H    

|-----------------|-----------------|-----------------|-----------------|
|-----------------|-----------------|-----------------|-----------------|
|-----------------|-----------------|---5--5----------|-----------------|
|-0---------------|-5---------------|---------5-------|-0---------------|
  H       H         H       H         E E. E. Q   Q     H       H    

Outro

|-----------------|-----------------|-----------------|-----------------|
|-----------------|-7---------------|-----------------|-----------------|
|-----------------|-----------------|---5-------------|-----------------|
|-----------------|-----------------|---------5-------|-0---------------|
  W                 H       H         E Q.    Q   Q     H       H    

|-----------------|-----------------|-----------------|-----------------|
|-----------------|-5/7-------------|-----------------|-----------------|
|-----------------|-----------------|---5-------------|-----------------|
|-----------------|-----------------|------5--5-------|-0---------------|
  W                 E E Q   H         E E. E. Q   Q     H       H   

|-----------------|-----------------|-----------------|-----------------|
|-----------------|-7---------------|-----------------|-----------------|
|-----------------|-----------------|---5-------------|-----------------|
|-----------------|-----------------|-----------------|-0---------------|
  W                 H       H         E Q.    Q   Q     H       H    

|-9-11h13---------|-----------------|-----------------|-----------------|
|-----------------|-7---------------|-----------------|-----------------|
|-----------------|-----------------|---5-------------|-----------------|
|-----------------|-----------------|------5--5-------|-0---------------|
  E S  S E H        H       H         E E. E. Q   Q     H       H    


|-----------------|-----------------|-----------------|-----------------|
|-----------------|-----------------|-----------------|-----------------|
|-----------------|-----------------|---5-------------|-----------------|
|-----------------|-----------------|---------5-------|-0-----------0---|
  W                 W                 E E  Q  Q   Q     H       Q   Q

|-----------------||
|-----------------||
|-----------------||
|(0)--------------||
  Q   Q   H


Key to rhythm notations:

W - Whole Note/Semi-Brieve
H - Half Note/Minim
Q - Quarter Note/Crotchet       Q. - Dotted Quarter Note
E - Eight Note/Quaver           E. - Dotted Eight Note
S - Sixteenth Note/Semi-Quaver  S. - Dotted Sixteenth Note
Добавлено: 11.05.2016
Другие материалы по этой песне:
  • Аккорды и текст

Страница создана 19.03.2012
http://primanota.ru/dangelo/africa-chords.htm
Привет, Гость.
Предлагаем пройти революционный курс по гитаре.
Подарок от PrimaNota.Ru, забирай!