PrimaNota.ru - самый крупный в мире бесплатный архив песенных текстов, аккордов, табулатур и нот


Dandy Warhols - Green - текст песни, таба, видео

Регистрация Запомнить меня
Войти через:  Facebook Google Twitter Vk Yandex Mail.ru

Dandy Warhols - Green - текст песни, таба, видео

Печатать
Просмотров: 133
Авторы: Courtney Taylor

-----------------------------------------------------------------
Green - The Dandy Warhols
-----------------------------------------------------------------
Tabbed by: Cye
Email: xxcyexx@gmail.com

This is my first tab so please don't hesitate to send me improvements/comments!

Tuning: Standard

Guitar 1: Lead
e|------------------------------------------|  |------------| 
B|-----3---1------1-------1------------0----|  |------1-----|
G|---2---2---2---------2-----2------0-----0-|x3|---2-----2--| Play through 
D|0-------------0---------------------------|  |------------| entire song.
A|-------------------3-----------2----------|  |-3----------|
E|------------------------------------------|  |------------|



Listen to the song for the rhythm.


Guitar 2: Rhythm

   D                 C            G              C
e|------------------------------------------|  |---|
B|-3-----------------1------------3---------|  |-1-|
G|-2----------------------------------------|x3|---|
D|-0-----------------2----------------------|  |-2-|
A|-------------------3------------2---------|  |-3-|
E|--------------------------------3---------|  |---|


Just do simple downstrokes when playing these chords.  I arranged them
in sync with the lead.

Добавлено: 19.03.2012
Другие материалы по этой песне:
  • Аккорды и текст

Страница создана 19.03.2012
http://primanota.ru/dandy-warhols/green-chords.htm
Привет, Гость.
Предлагаем пройти революционный курс по гитаре.
Подарок от PrimaNota.Ru, забирай!