PrimaNota.ru - самый крупный в мире бесплатный архив песенных текстов, аккордов, табулатур и нот


Dandy Warhols - Bohemeni like you - таба

Регистрация Запомнить меня
Войти через:  Facebook Google Twitter Vk Yandex Mail.ru

Dandy Warhols - Bohemeni like you - таба

Печатать
Просмотров: 97



Date: Tue, 26 Jun 2001 14:14:48 -0400
From: Howard Walsh 
Subject: d/dandy_warhols/bohemeni_like_you.tab

Song:        Bohemeni Like You
Artist:      Dandy Warhols
Transcriber: Shane Walsh (eddie_mcgee2000@yahoo.com)

After months of looking for this song on the net, I just decided to 
figure  it out. It is a very simple song. The only difficult part to 
the song is the intro. Here it is

IntroRiff 1
Guitar 1  
e|--------------2--3--3--2---0--0--0--0---------|
B|-4--5--5--4---3--3--3--3---2--3--3--2---------|
G|-4--4--4--4---2--2--2--2---2--2--2--2---1--1--|
D|-4--4--4--4---0--0--0--0---2--2--2--2---2--2--|
A|-2--2--2--2----------------0--0--0--0---2--2--|
E|----------------------------------------0--0--|

Guitar 2: B, D, A, E (All Power Chords)
--------------------------------------------------

Riff 2
Guitar 1 and 2
e|--------------------------|              |--------------------|        
B|-----------------2--2--2--|              |--------------------|
G|-4--4--4--4--4---2--2--2--| Repeat 3     |--4--4--4--4--4--x--|
D|-4--4--4--4--4---2--2--2--| Times Then:  |--4--4--4--4--4--x--|
A|-2--2--2--2--2---0--0--0--|              |--2--2--2--2--2--x--|
E|--------------------------|              |--------------------|

---------------------------------------------------

Riff 3 (Verse and Chorus)
Guitar 1 and 2

     B     D     A     E
e|-------------------------|
B|-------------------------|
G|---4-----7-----------9---|
D|---4-----7-----7-----9---|
A|---2-----5-----7-----7---|
E|---------------5---------|

*Strum Pattern is easy to figure out*

----------------------------------------------------

Song Layout

Riff 1       X2
Riff 2        
Verse 1      
Verse 2
Chorus
Riff 1       X2
Riff 2
Chorus

Have fun and Enjoy.
Rember this, a guitar is only as good as the person playing it.

Shane Walsh - I'd trade my wife befor i'd trade my guitar 

eddie_mcgee2000@yahoo.com


Добавлено: 23.09.2013
Другие материалы по этой песне:
  • Аккорды и текст

Страница создана 23.09.2013
http://primanota.ru/dandy-warhols/bohemeni-like-you-chords.htm
Привет, Гость.
Предлагаем пройти революционный курс по гитаре.
Подарок от PrimaNota.Ru, забирай!