PrimaNota.ru - самый крупный в мире бесплатный архив песенных текстов, аккордов, табулатур и нот


Dandy Warhols - Autumn Carnival - таба, видео

Регистрация Запомнить меня
Войти через:  Facebook Google Twitter Vk Yandex Mail.ru

Dandy Warhols - Autumn Carnival - таба, видео

Печатать
Просмотров: 75
-------------------------------------------------------------------------------
                             Autumn Carnival - The Dandy Warhols
-------------------------------------------------------------------------------
Tabbed by: Deemon666

Tuning: dtpassport@hotmail.com

Intro
Guitar 1 - Clean

e|------------------------------------------------------------------------------------|
B|----------------------------------------------------------------------------------- |
G|---------------------------------------------------5--------------------------------|
D|-----------7-------------------5--------------5------------------------3------------|
A|------7-------------------5--------------3------------------------3---------3-------|
E|-5-------------------3---------------------------------------1----------------------|
  

Verse
Guitar 1 - Clean
   You come           around to the        autumn              carnival...
e|------------------------------------------------------------------------------------|
B|----------------------------------------------------------------------------------- |
G|---------------------------------------------------5--------------------------------|
D|-----------7-------------------5--------------5------------------------3------------|
A|------7-------------------5--------------3------------------------3---------3-------|
E|-5-------------------3---------------------------------------1----------------------|
  
Guitar 2 - Distorted
Play around with the strumming and slide as it changes each time played

e|------------------------------------------------------------------------------------|
B|------------------------------------------------------------------------------------|
G|------------------------------------------------------------------------------------|
D|-------------------------------------------------------------3---3-3---3----/----(7)|
A|-------------------------------------------------------------3---3-3---3----/----(7)|
E|-------------------------------------------------------------1---1-1---1----/----(5)|
                                                               F5             s    (A5)

Chorus

Guitar 1 - Distorted

                       You      can        go      there       if       you

e|------------------------------------------------------------------------------------|
B|------------------------------------------------------------------------------------|
G|-7----------------------------------------------------------------------------------|
D|-7-------------------7-------------------8-------------------3----------------------|
A|-5-------------------7-------------------8-------------------3----------------------|
E|---------------------5-------------------6-------------------1----------------------|
   D5                  A5                  Bb5                 F5

                       
                                           need.....
e|------------------------------------------------------------------------------------|
B|------------------------------------------------------------------------------------|
G|-7----------------------------------------------------------------------------------|
D|-7-------------------7-------------------8-------------------3----------------------|
A|-5-------------------7-------------------8-------------------3----------------------|
E|---------------------5-------------------6-------------------1----------------------|
   D5                  A5                  Bb5                 F5


************************************

| /   slide up

************************************
Добавлено: 17.12.2015
Другие материалы по этой песне:
  • Аккорды и текст

Страница создана 17.12.2015
http://primanota.ru/dandy-warhols/autumn-carnival-chords.htm
Привет, Гость.
Предлагаем пройти революционный курс по гитаре.
Подарок от PrimaNota.Ru, забирай!