PrimaNota.ru - самый крупный в мире бесплатный архив песенных текстов, аккордов, табулатур и нот


Dandelion - I Think Im Gonna Be Sick Album - таба, видео

Регистрация Запомнить меня
Войти через:  Facebook Google Twitter Vk Yandex Mail.ru

Dandelion - I Think Im Gonna Be Sick Album - таба, видео

Печатать
Просмотров: 86
Author/Artist: Dandelion
Title: I Think I'm Gonna Be Sick - album
Transcribed by: top12andcounting@hotmail.com
Contains: Waiting For A Ride
          Under My Skin
          Nothing To Say
          Outside
          Onion Field
          Diggin' A Hole
          Thorn
          Play That Song
          I Can Remember
          In My Room
          Weight Of The World
          untitled track

detune all strings one half step for all songs, except where noted

play with disortion throughout, except where noted

note that each song has it's own legend, as the same symbol may mean 
something
different in another song

the number of dashes between chords and notes give an
approximation of timing, but use your judgement

when referred to, chords are named as if in standard tuning

-------------------------------------------------------------------------------

Title: Waiting For A Ride

/ - slide up
x - muted string
(x) - optional
~ - vibrato
f - full note bend
h - hammer-on
p - pull-off
r - release bend

  intro 1

3---9---9---9---9---10--10----9---9---9---9---8--8--
4---9---9---9---9---10--10----9---9---9---9---8--8--
5---7---7---7---7---8---8-----7---7---7---7---6--6--
6-0---0---0---0-------------0---0---0---0-----------

  intro 2

3-9-9--9-9--9-9--9-9-9-10--10--9-9--9-9--9-9--9-9-9-8--8--
4-9-9--9-9--9-9--9-9-9-10--10--9-9--9-9--9-9--9-9-9-8--8--
5-7-7--7-7--7-7--7-7-7-8---8---7-7--7-7--7-7--7-7-7-6--6--

  verse

3-7/9--9-9-9--7-7/9--9-9-9--7-7/9--9-9-9--9-12--9-9-9-9--9-9--
4-7/9--9-9-9--7-7/9--9-9-9--7-7/9--9-9-9--9-12--9-9-9-9--9-9--
5-5/7--7-7-7--5-5/7--7-7-7--5-5/7--7-7-7--7-10--7-7-7-7--7-7--

  with this ending after the G5 chord on the fourth time through

3-9--7--4-4-4--
4-9--7--4-4-4--
5-7--5--2-2-2--

  chorus

3-2--2--2-2-2-x-5--5--5-5-5/7--7-7-7--7-7-7-7-7--7-7-7-7--
4-2--2--2-2-2-x-5--5--5-5-5/7--7-7-7--7-7-7-7-7--7-7-7-7--
5-0--0--0-0-0-x-3--3--3-3-3/5--5-5-5--5-5-5-5-5--5-5-5-5--

  fill 1

  ~      ~    ~     ~    ~    ~
2-5------5----5-----5----6----6---0-0-12---12h15p12-12---12h15p12-12---
3-7f-----7f---7f----7f---8f---8f--0-0-14f-----------14f-----------14f--

                                       ~
2-12h15p12-12---12h15p12----------15fr----
3----------14f-----------14frp12----------
4-------------------------------14----14--

  fill 2

1-12---12---12---12---13--13----12---12---12---12---11--11---
2-15f--15f--15f--15f--16f-16f---15f--15f--15f--15f--14f-14f--

  bridge

1(0)---------------------(0)-----------------------------------------------
2-3--3--3-3--3-3-3-3--3-3-6--6--6-6--6-6-6-6--6-6-8--8--8-8--8-8-8-8--8-8-7
3-2--2--2-2--2-2-2-2--2-2-5--5--5-5--5-5-5-5--5-5-7--7--7-7--7-7-7-7--7-7-7
4-4--4--4-4--4-4-4-4--4-4-7--7--7-7--7-7-7-7--7-7-9--9--9-9--9-9-9-9--9-9-7
5-0--0--0-0--0-0-0-0--0-0-0--0--0-0--0-0-0-0--0-0-0--0--0-0--0-0-0-0--0-0-0

1-------------------
2--7--7-7--7-7-7-7--
3--7--7-7--7-7-7-7--
4--7--7-7--7-7-7-7--
5--0--0-0--0-0-0-0--

  solo

1-0------0-0-0--0-0-0------0-0-0--0-0-0------0-0-0--0-0--0-0-0-----0-------
2-3/(5)--5-5-5--3-3-3/(5)--5-5-5--3-3-3/(5)--5-5-5--8-8--5-5-5-0-0-------12
3---------------------------------------------------------------------14f--
                                           ~      ~
1-----------------------12----12----12-----12-----12----
2-----12----12----12-------15f---15f---15f-15f----15f---
3--14f---14f---14f---14f--------------------------------

  fill 3
                                ~
2-8f----8fr-8-7--------------------
3---------------10-9-8-7f---7fr-5--

  fill 4

1-15f----15f----15fr-15-14------------------------------------
2--------------------------18-17----17----17-----17--17--17---
3--------------------------------19f---19f---19--19f-19f-19f--

  outro

3-7-7-7-7-7-----7-7-7-7-7-----7-7-7-7-7-----7-7-7-7-7---7-7--7-7-7-7-7---
4-7-7-7-7-7-----7-7-7-7-7-----7-7-7-7-7-----7-7-7-7-7---7-7--7-7-7-7-7---
5-5-5-5-5-5-----5-5-5-5-5-----5-5-5-5-5-----5-5-5-5-5---5-5--5-5-5-5-5---

1--------------------------------------------------------------------5---
2--------------------------------------------------------------------x---
3--7-7-7-7-7---7-7--7-7-7-7-7-----7-7-7-7-7-----7--7--7--------5-----7---
4--7-7-7-7-7---7-7--7-7-7-7-7-----7-7-7-7-7-----7--7--7--5-----5-----7---
5--5-5-5-5-5---5-5--5-5-5-5-5-----5-5-5-5-5-----5--5--5--5-----3---------
6--------------------------------------------------------3---------------

      after you play the G5 chord, turn down the volume
      after you play the C5 chord, turn down some more

-------------------------------------------------------------------------------

Title: Under My Skin

/ - slide up
(x) - optional note
h - hammer on
\ - slide down
||| - repeat chord
* - for this chord, use your thumb to fret the low note
    in order to free up the first finger to fret the minor third
    on the third string
% - rest
f - full bend
g - gradual bend
h - hold bend
t - three semi-tone bend
r - release bend

  strum and slide a power chord down from somewhere high on the neck, then

  intro

3-3---3--3-3/6--6--6--6-6--5--5--5--5-5--4--4--4--4-4--
4-4---4--4-4/7--7--7--7-7--6--6--6--6-6--5--5--5--5-5--
5-4---4--4-4/7--7--7--7-7--6--6--6--6-6--5--5--5--5-5--
6-2---2--2-2/5--5--5--5-5--4--4--4--4-4--3--3--3--3-3--

  for verse, guitar lays out or plays intro chords quietly and sparsely

  fill 1 - play with an upstroke           fill 2
           play clean or turn down volume

1(0)------------------------------------  -3-----------
2(0)------------------------------------  -3-----------
3-3-------------------------------------  -------------
4-4-------------------------------------  -------------
5-4-------------------------------------  -------------
6-0h2-----------------------------------  -------------

  chorus
                                *

3-3---3--3-3/6--6--6--6-6/8-----7-----
4-4---4--4-4/7--7--7--7-7/9-----9-----
5-4---4--4-4/7--7--7--7-7/9-|||-9-|||-
6-2---2--2-2/5--5--5--5-5/7-----7-----

  fill 3

3-9-\8-8-8/9--9--9-\8-8-8/9--9----9-\--
4-10\9-9-9/10-10-10\9-9-9/10-10---10\--
5-10\9-9-9/10-10-10\9-9-9/10-10-%-10\--
6-8-\7-7-7/8--8--8-\7-7-7/8--8----8-\--


  solo - play clean or turn down volume
         let 1st and 2nd string ring out at random

1-0---0-0--0---0-0--0---0-------------------------------------------
2-3/5-5-5--3/5-5-5--3/5-5-------------------------------------------
3-------------------------4--4--4--3--3--3--4--4--4--4--3---3-3-4---

1-----------------------------------------------0--------0-----0--0--0-----
2-----------------------------0--------0--------3f-------3f----3f-3f-3f----
3-4---3--3--3--2--0--0--2--0--2f-0--0--2f-0--0-----0--0-----0-----------0--

1--------------------0-----------0---------------
2----------------------0-3gfh-------3tgr/--------
3-3p2p0-----2p0-2f-------------------------------
4-------2p0--------------------------------------
5------------------------------------------------
6-------------------------------------------14\--

  the rest of the parts are previous parts tranposed down
  two frets
  use these fills:

1-1------  -7----7\----  -0----0--0--0--0--0--0--0--0--0--0--0--
2---1----  -7-%--7\----  -3/5--5--5--3--3--3--2--2--2--1--1--1--
3-----2--  ------------  ---------------------------------------

  play this fill in time
  with the rhythm,
  rebending each bend
  several times              outro

1-12----10----9-----8----  ----------------------------------------------
2-15f---13f---12f---11f--  ------15fh------------------------------------
3------------------------  -14f---------14fh--14fh--14f-14f-14f-14f-14f--

1----------------------------------12----
2-------------------------------12-------
3-14frp12----%-(four-times)-14f-------%--
4---------14-----------------------------

-------------------------------------------------------------------------------

Title: Nothing To Say

(x#) - number of repeats
/ - slide up
\ - slide down
x - muted string
f - full bend
~ - vibrato
r - release bend
p - pull-off
|-- - hold bend

  intro

3-11------9--------
4-12------10-------
5-12------10-------
6-10-(x9)-8--(x7)--

  fill 1

3-14-------
4-15-------
5-15-------
6-13-(x7)--

  verse riff 1

3-2--2--2--2/-4--4\--
4-3--3--3--3/-5--5\--
5-3--3--3--3/-5--5\--
6-1--1--1--1/-3--3\--

  verse riff 2

3-7--7--7--7/-9---9-\--
4-8--8--8--8/-10--10\--
5-8--8--8--8/-10--10\--
6-6--6--6--6/-8---8-\--

  fill 2

3-9-------14-------
4-10------x--------
5-10------15-------
6-8--(x9)-13-(x6)--

  fill 3

3-11---------
4-12---------
5-12---------
6-10--(x13)--

  fill 4 - solo lead-in, play with fill 3

1-3-3-3-3-3-3-3-3-3-3-3-3-3-3--
2-3-3-3-3-3-3-3-3-3-3-3-3-3-3--

  solo
                                         ~

1------3------3----3-            -----------
2----3------3--------            ----3------
3-5f-----5f-----5f---  x3, then  -5f---5-3--

2--18f---18frp15----18p15----18p15-18p15-----18p15------
3----------------17-------17-------------17f-------17f--

1-----15-----------15--------15-----15--------15--------15------
2--------15-----15--------15---------------15--------15---------
3-17f-------17f-------17f-------17f----17f-------17f-------17f--

  fill 5

"oh"
"yeah"

2-3----5----6----8---8---8---8---8---8----
3-5f---7f---8f---10f-10f-10f-10f-10f-10f--

  fill 6                                               fill 7

"well"                                               "oh"

1---------15--------15------------------------------  -15-------13--------
2------15--------15----18----18--18--18--18---------  -18f-(x7)-16f-(x6)--
3--17f-------17f-------17f---17f-17f-17f-17f-17-15--  --------------------

  fill 8               fill 9

  "yeah, yeah, yeah, yeah, yeah, yeah, yeah"
  "..world"

2-6-------8---------  -----18-----18--18---------
3-8f-(x4)-10f-(x3)--  -17f----17f-17f-17f-17-15--

  fill 10

"b-yyyyyyyyyyyyyy"                                                 
"falnbe-hind"

1----------------15--------15-----15--------15--------15-----15------15-----15---
2-15fr-15-----15--------15---------------15--------15----------------18f-18-18f--
3---------17f-------17f-------17f----17f-------17f-------17f----etc--------------

1-15-15-15
2---------
3---------

  fill 11

  |---------  |---------  |---------
  ~           ~           ~

1-15---15-15--15---15-15--15---15-15--13---13-13--13--13---
2-18f--18-18--18f--18-18--18f--18-18--16f-----16f-16f-16f--

  fill 12

1--------15--------15-----15---------------
2-----15--------15---------------15--------
3-17f-------17f-------17f----17f----17-15--

  fill 13

  |---------  |---------  |---------
  ~           ~           ~

1-15---15-15--15---15-15--15---15-15--13--13--13--13--13--13---
2-18f--18-18--18f--18-18--18f--18-18--16f-16f-16f-16f-16f-16f--

  outro solo

                                  ~   ~   ~

1------3-------------------------------------------------------
2----3---6f--6f--6f-6f--6frp3-----3---3---3---3----------------
3-5f--------------------------5f--5f--5f--5f--5f--5frp3---3----
4-------------------------------------------------------5---5--

                       ~  ~                                ~                 
    ~

1------3----3-3----3-3------------15-15-----15-15----15-15---------------------------
2----3------3-3----3-3-6f-6f------15-15-----15-15----15-15-18f--18f-18f-18f-18f-18f--
3-5f-----5f-----5f------------17f-------17f-------17f--------------------------------

                        |--------
                               ~                                           ~

1--------------------15----------------------------------------------------18--------
2-18f--18-17-15---------18p15----15-18p15------------------------------18------------
3---------------17f-----------17----------17p15----15-17p15-17p15-17f----------------
4-----------------------------------------------17-------------------------------5\--
5--------------------------------------------------------------------------------5\--
6--------------------------------------------------------------------------------3\--

-------------------------------------------------------------------------------

Title: Outside

x - muted string
~ - vibrato
g - gradual bend
s - half-step bend
h - hammer-on
(x) - optional note, or play only at certain times
(xr) - listen to the recording for the rhythm and number of repeats
/ - slide up
|-- - hold bend
p - pull-off
\ - slide down
% - rest

  intro          ~

2------------5-5-5----------------7-7-7gs--
3------------5-5-5----------------7-7-7gs--
4----2--2--x--------------2--2--x----------
5----2--2--x--------------2--2--x----------
6-0--0--0--------------0--0--0-------------

  verse

2----------------------------
3----------------------------
4-------5----7----5----------
5---------------------5-6-7--
6-0--0-----0----0---0--------

  fill 1
      ~
5-5h6h7--

  fill 2
      ~
4-0h1h2--

  fill 3

2-(17)-------
3--x---------
4-/14--(xr)--

  chorus


2---------10--------6-6-6/13--------------10-----------------------
3---------9---------5-5-5/12--------------9---------------x-x-x-x--
4-0-0-0-0-7---0-0-0-3-3-3/10--0-0-0-0-0-0-7---0-0-0-0-0-0-x-x-x-x--
5---------------------------------------------------------x-x-x-x--

  solo                                                       |--------
                                                             ~

1-0---0-0--0--0--0--0-0--0-----0--0--0------0--0--0------0---12-------
2-3/5-5-5--8--8--7--7-8--8/10--10-10-10/12--12-12-12/15--15--15f-(xr)-
3---------------------------------------------------------------------

       |-----------------  |-----                               |-----------
  ~    ~                                                 ~      ~     ~     
~   ~

1------15------15-----------------12-------------15---------------------------------
2-12------15f-----15f-etc-------------15-12-15f------15-15f--12-15----15------------
3--------------------------14f-14-------------------------------14f---14f---14--14--

1------12-----------------------------------------------
2---------15-12-15f---12-13p12----12-13p12----12-13p12--
3-14f--------------------------14----------14-----------

2----13p12----13p12----13p12----15p12----15p12----15p12--
3-14-------14-------14-------14-------14-------14--------

  |--------- |------ |------------ |--------- |--------- |------ |------

2-10---10-10-10---10-10---10-10-10-10---10-10-10---10-10-10---10-10---10-
3-12f--12-12-12f--12-12f--12-12-12-12f--12-12-12f--12-12-12f--12-12f--12-

        ~
2---------
3-12-12-10

                                         ~
1--------10-10-10------13-13-13------13--13----------
2-----10----------13f------------13f-----13f---------
3-12f--------------------------------------------9---

  fill 4
       ~
1---------
2---------
3--7h8h9--

  outro

                                                    ~
2---------10--------6-6-6/13--------------10-------------
3---------9---------5-5-5/12--------------9---------13---
4-0-0-0-0-7---0-0-0-3-3-3/10--0-0-0-0-0-0-7---0-0-0-15f--

                                                    ~
2---------10--------6-6-6/13--------------10--------12---
3---------9---------5-5-5/12--------------9---------15f--
4-0-0-0-0-7---0-0-0-3-3-3/10--0-0-0-0-0-0-7---0-0-0------

  fill 5

1-12-------15-------18f\-------------
2-15f-(x8)-18f-(x6)------------------
3------------------------------------
4------------------------------------
5------------------------------------
6------------------------10-11-12-%--

-------------------------------------------------------------------------------

Title: Onion Field

x - muted string
q - quarter step bend
g - gradual bend
h - half step bend
f - full bend
/// - tremolo pick (pick as fast and continuously as possible)

  intro

3-16-16-16-17-17-17-17-17--
4-0--0--0--0--0--0--0--0---

  verse
                                                      fill 1

1-------------------------15-------14-------14-----  -----------
2-15-13----15-13----15-------15-------15-----------  -15q-(x8)--
3-------14-------14----14-------14-------14----14--  -----------

  pre-chorus
                                              fill 2

2------------------------------------------  -15gh-------
3-16-16-16-16-16-15-15-15-14------13-------  -15gh-------
4-0--0--0--0--0--0--0--0--0--(x8)-0--(x8)--  -0----(x8)--

  chorus

2-3-------3--
3-2-------1--
4-0-----0-0--

  mebbe sumpn like

3-14-14-14-16-16-16-16-16-14-14-14-16-16-16-16-16-13-13-13-14-14-16-14-16--
4-0--0--0--0--0--0--0--0--0--0--0--0--0--0--0--0--0--0--0--0--0--0--0--0---

  outro

  listen for rhythm

4-10-----13------12-----------
5-10-----13------12-----------
6-8------11------10-----------

  fill 3


2-13-----16-----15---
3-15f----18f----17f--


2-----------------------------3--
3-14-///-13-///-12-///-11-///-2--
4-x------x------x------x------0--
5-12-///-11-///-10-///-9--///----

-------------------------------------------------------------------------------

Title: Diggin A Hole

(xr) - listen to the recording for the rhythm and number of repeats
/ - slide up
x - muted string
nh - natural harmonic
~ - vibrato
f - full bend

  main riff                fill 1                 f 2    fill 3
  each chord xr                   nh-----         ~                  ~

2-----------------------  ---------------------  -12--  -9-x-x-9-x-x-12--
3-3-----6-----3-----9---  ---------------------  -12--  -9-x-x-9-x-x-12--
4-4-----7-----4-----10--  -9-9-9---------------  -11--  -9-x-x-9-x-x-11--
5-4-----7-----4-----10--  -9-9-9--x-x-x-x-etc--  -----  -----------------
6-2-----5-----2-----8---  -7-7-7-/x-x-x-x------  -----  -----------------

  fill 4        lead break                                    f 5     f 6
                ~          ~                                  ~       ~

1------------  -14-----------------------------------------  -17f--  -----
2-7----------  -17f-(X 12)-14-------x-x-----17-----17------  ------  -14--
3-9f-(x 16)--  ------------16f-(x6)-x-x-16f----16f----16f--  ------  -----

  f 7    f 8    f 9
  ~      ~

1-----  -----  -----------
2-12--  -16--  -7---------
3-----  -----  -x---------
4-----  -----  -4-(x 16)--
5-----  -----  -----------
6-----  -----  -----------

-------------------------------------------------------------------------------

Title: Thorn

x - muted string
% - rest
/ - slide up
\ - slide down
f - full bend
r - release bend
~ - vibrato
p - pull-off
(xr) - listen to the recording for the rhythm and number of repeats

  intro and verse                         fill 1

1--------------------------------------  -3---3--
2--------------------------------------  -3-%-3--
3-----------------------6--6----4---4--  --------
4-------------5---------7--7--x-5---5--  --------
5----7--7-5-------------7--7--x-5---5--  --------
6-0---------7----7-6-5--5--5--x-3-%-3--  --------

  chorus

3-7/9--9-9-9--9-9-7/9--9-9-9--9-9--
4-7/9--9-9-9--9-9-7/9--9-9-9--9-9--
5-5/7--7-7-7--7-7-5/7--7-7-7--7-7--

2-8/10--10-10-10-10-10-10-10-8-8-8-8-7-7-7--
3-7/9---9--9--9--9--9--9--9--7-7-7-7-6-6-6--
4-5/7---7--7--7--7--7--7--7--5-5-5-5-4-4-4--

  solo
                                         repeat and
             ~                    ~      increase speed

1----------------------------------------12-----------------12--------(15)--
2-9----------------12-----------------------15p12-----------15f-(xr)--------
3-11f---11fr-9-----14f---14frp-12-14--------------14f-(xr)------------------

-------------------------------------------------------------------------------

Title: Play That Song

f - full bend
x - muted string
/ - slide up
\ - slide down
t - step and a half bend
~ - vibrato
s - semi-step bend
r - release bend

  intro - reprise later with wah
          and a half-time feel,
          later as octaves with wah         fill 1         f2    fill 3
                                            with wah      wah

2----------------------------------------  -------------  ----  -12---------
3-9--9------7--7------6-6--6-5--5-5------  --2-2-2---4--  -9--  -14f-(x16)--
4-9--9------7--7------6-6--6-5--5-5------  --2-2-2---4--  -9--  ------------
5-7--7------5--5------4-4--4-3--3-3------  --0-0-0-0-2--  -7--  ------------
6-------0-0-------0-0---------------0-0--  -------------  -0--  ------------

  verse

3--9--9--7-7-7-7-7--7--7-7--        -9--9--9-9-9-9-12--12--9-9--
4--9--9--7-7-7-7-7--7--7-7--        -9--9--9-9-9-9-12--12--9-9--
5--7--7--5-5-5-5-5--5--5-5--  (x3)  -7--7--7-7-7-7-10--10--7-7--

  fill 4 - with wah

3-11/-12-12-12-12-12-12-12\-11-11-11-11-11-11-11/-12-12-12-12-12\-11-11-11-11-
4-x---x--x--x--x--x--x--x---x--x--x--x--x--x--x---x--x--x--x--x---x--x--x--x--
5-9-/-10-10-10-10-10-10-10\-9--9--9--9--9--9--9-/-10-10-10-10-10\-9--9--9--9--

3-11-11-11-11--
4-x--x--x--x---
5-9--9--9--9---  (X2)

  solo - two guitars here, it's hard to make out, one is using
         some weird, noisy effect

  ~                                                                          
    ~
1-----------------------------------------------------------------------------------
2-15f---15f-15-15t---0-3p0-3p0-0-15p12-15p12-12-------------------------------------
3-----------------------------------------------14p12-14p12-14p12-14p12-14f-----12--
4----------------------------------------------------------------------------14-----

       ~             ~                      ~
3------12---------------------------------------
4---14------14-12----12---12-12-----------------
5-?---------------14------------14-13-12--------
6----------------------------------------12-15--

  fill 5 - with wah

3-7-----12--11-----11--12--11--
4-7-----x---x------x---x---x---
5-5-----10--9------9---10--9---

  outro - with wah

              ~                       ~
3--------7--9-9---9--9\---------7-9-7-7--7\--------7--9-9--(9)sr--(9)sr--(9)sr\--
4----/9---------------------/9------------------/9-------------------------------
5--------------------------------------------------------------------------------
6-0----------------------0-------------------0-----------------------------------

                 ~
1---------------------------------
2---------------------------------
3--------7--9--7-7---7\--9--------
4----/9------------------9--------
5------------------------7--------
6-0----------------------0---etc--

-------------------------------------------------------------------------------

Title: I Can Remember

detune all strings one whole note

x - muted string
h - hammer-on
/ - slide up

  intro riff 1 - semi-clean with flanging

4-12h14---14----12h14-----14-----
5--------------------------------
6-------0-----0--------0------0--

  intro riff 2 - listen to the recording for the rhythm
                 slide the octaves into each other

3-9---14-12---14-11---12-10---12--
4-x---x--x----x--x----x--x----x---
5-7---12-10---12-9----10-8----10--

  verse - listen to the recording
          for the rhythm

3------------------10--9---
4-7-----12-----10--x---x---
5-7-----12-----10--10--10--
6-5-----10-----8---8---8---

  fill 1 - listen to the recording
           for the rhythm

3-7/9---7/9---9/10--
4-x-x---x-x---x-x---
5-5/7---5/7---7/8---

  breakdown - clean or turn down volume
              with slight variation

1----------------------------------------0------
2--------------------------------------6---6----
3-----6----------------6------------5--------5--
4-7------7----------------7---------------------
5-----------7------7---------7------------------

  outro

3-16--15--14--16-16--15-15--14--
4-x---x---x---x--x---x--x---x---
5-14--13--12--14-14--13-13--12--

  end on this chord

4-2--
5-2--
6-0--

-------------------------------------------------------------------------------

Title: In My Room

detune all strings one whole step

x - muted string
~ - vibrato
/ - slide up
\ - slide down

  start on this chord

4-2--
5-2--
6-0--

  intro and verse
            ~             ~             ~

3-----9-9---9-------9-9---9-------9-9---9---10-10-10-10-12-12-12-12\9--
4-----x-x---x-------x-x---x-------x-x---x---x--x--x--x--x--x--x--x--x--
5-----7-7---7-------7-7---7-------7-7---7---8--8--8--8--10-10-10-10\7--
6-0-0-----0-----0-0-----0-----0-0-----0--------------------------------

  chorus

4-5/7--7-7-7--7-7-5----5--5--5-5-5\4--4--4--4-4-4/5--5--5--5-5--
5-5/7--7-7-7--7-7-5----5--5--5-5-5\4--4--4--4-4-4/5--5--5--5-5--
6-3/5--5-5-5--5-5-0h3--3--3--3-3-3\2--2--2--2-2-2/3--3--3--3-3--

-------------------------------------------------------------------------------

Title: Weight Of The World

h - hammer-on
x - muted string
~ - vibrato
/ - slide up
s - half step bend
r - release bend
|-- - hold bend
t - step and a half bend
g - gradual bend

  intro and verse

2-----8-8-8-0-----5-5-5-0-----3-3-3-0-----5-5-5-0---
3-----7-7-7-0h2---4-4-4-0-----2-2-2-0h2---4-4-4-0---
4-2---5-5-5-0h2---2-2-2-0-----0-0-0-0h2---2-2-2-0h--
5-2---------0-----------0-----------0-----------0h--
6-0---------------------0h3---------------------0---

  chorus

4-9--9--9-9-9-9-9--9--9-9-4--4--4-4-5--4--5--9--
5-9--9--9-9-9-9-9--9--9-9-4--4--4-4-5--4--5--9--
6-7--7--7-7-7-7-7--7--7-7-2--2--2-2-3--2--3--7--

  outro solo

                ~                             |----------------

2---------------------------------------------------------15--------------------
3-14-x-14--------------2/13--13sr--13sr--13sr-13s-(13)t------13gr---13srsrsrsr\-
4-14-x-14----12-14--------------------------------------------------------------
5-14-x-14-14--------------------------------------------------------------------
6----0--------------------------------------------------------------------------

        ~   ~   ~

4-------14--14--14--etc--------------------------------------------
5-14h16------------------------------------------------------------

-------------------------------------------------------------------------------

Title: untitled

| - repeat chord
% - rest
* - note
/ - slide up
\ - slide down
x - muted string
(xr) - listen to the recording for the rhythm and number of repeats
f - full bend
|-- - hold bend
g - gradual

  intro riff 1     fill 1

3-4-4-4--         -4--4-4--
4-4-4-4--         -4--4-4--
5-2-2-2--         -2--2-2--

  intro riff 2

2-5-----------------------4-----------------------
3-4-----------------------4-----------------------
4-4--|--|-|--|-|-|-|--|-|-4--|--|-|--|-|-|-|--|-|-
5-2-----------------------2-----------------------  repeat, then

2-6-----------------------7-----------------------4----------------------
3-6-----------------------6-----------------------4----------------------
4-6--|--|-|--|-|-|-|--|-|-6--|--|-|--|-|-|-|--|-|-4--|--|-|--|-|-|-|--|-|
5-4-----------------------4-----------------------2----------------------

2-6------4------6-
3-6------4------6-
4-6--|-|-4--|-|-6-
5-4------2------4-  x 3, then

2-6-----------------------7-----------------------4----------------------
3-6-----------------------6-----------------------4----------------------
4-6--|--|-|--|-|-|-|--|-|-6--|--|-|--|-|-|-|--|-|-4--|--|-|--|-|-|-|--|-|
5-4-----------------------4-----------------------2----------------------

2-6------4------6--------4------6--------4------6--------4------6-------------
3-6------4------6--------4------6--------4------6--------4------6-------------
4-6--|-|-4--|-|-6-|--|-|-4--|-|-6-|--|-|-4--|-|-6-|--|-|-4--|-|-6--|-|-|-|-%--
5-4------2------4--------2------4--------2------4--------2------4-------------

  fill 2 - with wah and vibrato (and tremolo effect?)
           listen to the recording for the rhythm

  part 1

3-16-------
4-x--------
5-14-(xr)--
|
|
| part 2 - play 2 1/2 times
|
1------------------------------------------------
2-14--------14\-12--12\-11--11-11\-10---10---10--
3-x---------x---x---x---x---x--x---x----x----x---
4-11---(xr)-11\-9---9-\-8---8--8-\-7----7----7---
|
|
|  part 3 - listen to the recording for the rhythm
|
1-------------------------------------------16---14--13---16----
2-14---12--11---14---12--11---18---16--14---x----x---x----x-----
3-x----x---x----x----x---x----x----x---x----13---11--10---13-%--
4-11---9---8----11---9---8----15---13--11-----------------------

  verse - clean

1-0--------0-------0--------------------0-----0-----------
2-0--------0---------0------------------0-------0---3-----
3-1--------------------1-2-1---1------------------1----1--
4-2-----2--------2-----------2---2----------2-------------
5-2-------------------------------------------------------
6-0---------------------------------0---------------------

                                             * - distortion on

1-----5---------7--5-------0-----0-----------------------------------
2-----5-------5--------------------0---3-------------9-9-9/-10-10-10\
3-----------6------------------------1----1--2-2-2---8-8-8/-9--9--9-\
4---------7--------------------2-------------2-2-2---6-6-6/-7--7--7-\
5--------------------------------------------0-0-0-------------------
6-5--------------------0---------------------------------------------

2-9-9-9/-10-10-10\-x-x--
3-8-8-8/-9--9--9-\-x-x--
4-6-6-6/-7--7--7-\-x-x--

  pre-chorus

  guitar one

3-7/--9----------\-7/--9--------\-7/--9-----------11--12--11--
4-x---x-|-|-|-|-|\-x---x-|-|-|-|\-x---x-|-|-|-|-|-x---x---x---
5-5/--7----------\-5/--7--------\-5/--7-----------9---10--9---
|
|
| guitar two - with wah
|
3-7/--9----------\-7/--9--------\-7/--9-----------11--12--11--9------7-----
4-x---x-|-|-|-|-|\-x---x-|-|-|-|\-x---x-|-|-|-|-|-x---x---x---x------x-----
5-5/--7----------\-5/--7--------\-5/--7-----------9---10--9---7-(x8)-5-(x8)
|
|
|                                      |------- |------- |---------------
|
1--------------------------------------12-------12-------12----------------
2--------------------------------------15f--|-|-15f--|-|-15f--|-|-|-|-|-|--
3-6-------13------11------14-----------------------------------------------
4-x-------x-------x-------x--------x-x-------------------------------------
5-4-(x12)-11-(x8)-9--(x8)-12-(xr)--x-x-------------------------------------

  chorus - variation of intro riff 2

  solo rhythm - part1, part 1, part 2, part 1, repeat

  part 1                        part 2

3-10-------------------------  -8--------------------------
4-11-------------------------  -9--------------------------
5-11--|--|-|-%-|-%-|-|--|-|--  -9---|--|-|-%-|-%-|-|--|-|--
6-9--------------------------  -7--------------------------

  solo - with wah


  ~     ~
1-9-----9-----9----9----9----9---
2-12f---12f---12f--12f--12f--12f-

  |--------- |------ |------------ |--------- |--------- |------ |------

2-9----9--9--9----9--9----9--9--9--9----9--9--9----9--9--9----9--9----9-
3-11f--11-11-11f--11-11f--11-11-11-11f--11-11-11f--11-11-11f--11-11f--11

        ~
2----------
3-11-11-9--

3-9---------11-------9-------8------
4-x-|-|-|-|/x--|-|-|-x-|-|-|-x-|-|--  repeat once
5-7---------9--------7-------6------

  |--------- |------ |------------ |---------

1-9----9--9--9----9--9----9--9--9--9----9--9--  repeat once
2-12f--12-12-12f--12-12f--12-12-12-12f--12-12-

3-9--11---------4--6-------------
4-x--x--|-|-|-|-x--x-|-|-|--|-|--  repeat once
5-7--9----------2--4-------------

                 ~
3----------------11---11/13--13-13-11/13--13-13-11/13--13-13-11/13--13-13--
4-9/11--11-11----x----x------x--x--x------x--x--x------x--x--x------x--x---
5-------------11-9----9-/11--11-11-9-/11--11-11-9-/11--11-11-9-/11--11-11--

2-12---12---12----15--15--15--15---15---15----15--15--15---
3-14f--14f--14f---17f-17f-17f-17f--17f--17f---17f-17f-17f--

1-----------------------------------9---------------
2-12---7-------10---10---10---10----12f-------------
3-14f--9f------12f--12f--12f--12f--------9----------
4----------------------------------------9-----2-/--
5----------------------------------------7-----2-/--
6----------------------------------------------0----

  fill 3          fill 4
  (11:18)         (11:26)

1-7--7--7--     -9---0------------
2-7--7--7--     -9---0------------
3-8--8--8--     -10--1-----1---/--
4-9--9--9-- x4  -11--2-----2---/--
5-9--9--9--     -11--2-----2---/--
6-7--7--7--     -9---0-----0------

  fill 5

  pm

6-0-(xr)--

  outro riff 1 - pm's may also be played as nh's

  pm        pm

3--------/9--------/9--/9------------------------
4---------x---------x---x--etc., build up--------
5--------/7--------/7--/7--to playing 6 octaves--
6-0-(xr)----0-(xr)---------in a row--------------

  outro riff 2

3-/9-----\/9------\/9------\/13------\/13------\/13------\/16------\/16------\
4--x-------x--------x--------x---------x---------x---------x---------x--------
5-/7-(xr)\/7-(xr)-\/7-(xr)-\/11-(xr)-\/11-(xr)-\/11-(xr)-\/14-(xr)-\/14-(xr)-\
6------------------------------------------------------------------------

2-----------/17-------
3-/16------\-x--------
4--x--------/14-(xr)--
5-/14-(xr)-\----------

  outro riff 3 - repeat once

3-/9--\/9--\/9--\/9--\/9-\/9--
4--x----x----x----x----x---x--
5-/7--\/7--\/7--\/7--\/7-\/7--

  outro riff 4 - listen to the recording for the rhythm

2----------------------------------------------16/17------16/17------16/17------
3-9---7---6----13---11---14----16---14---13----x--x-------x----------x--x-------
4-x---x---x----x----x----x-----x----x----x-----13/14-(x6)-13/14-(x6)-13/14-(x22)
5-7---5---4----11---9----12----14---12---11-------------------------------------

1---------------------------------------------
2-17---15---14-----------------------------9--
3-x----x----x-----13---11---9----9-9---8---9--
4-14---12---11----x----x----x----9-9-x-9---9--
5-----------------11---9----7----7-7-x-9-%-7--
6------------------------------------x-7---0--

  fill 6

2-16---
3-14f--  x6

     
Добавлено: 04.11.2013
Вам также может быть интересно:
Другие материалы по этой песне:
  • Аккорды и текст

Страница создана 04.11.2013
http://primanota.ru/dandelion/i-think-im-gonna-be-sick-album-chords.htm
Привет, Гость.
Предлагаем пройти революционный курс по гитаре.
Подарок от PrimaNota.Ru, забирай!