PrimaNota.ru - самый крупный в мире бесплатный архив песенных текстов, аккордов, табулатур и нот


Dandelion Hands - My Friends Dont Know I Know They Hate Me - таба, видео

Регистрация Запомнить меня
Войти через:  Facebook Google Twitter Vk Yandex Mail.ru

Dandelion Hands - My Friends Dont Know I Know They Hate Me - таба, видео

Печатать
Просмотров: 101
-------------------------------------------------------------------------------
       dandelion hands - my friends don't know (i know they hate me)
-------------------------------------------------------------------------------

verse
e|---------------------------------------------------------------------------|
B|---------------------------------------------------------------------------|
G|---6---7~6---6---------6---7~6---6--9-7------------------------------------|
D|--7-7-7-----7-7-7-7---7-7-7-----7-7----------------------------------------|
A|-5---5-----0---0-4---5---5-----0-----0-------------------------------------|
E|---------------------------------------------------------------------------|   x2


chorus
e|---------------------------------------------------------------------------|
B|---------------------------------------------------------------------------|
G|-------4------------6-6-6-4-4-4-2-2-2--7-----------------------------------|
D|-------0------------0-0-0-0-0-0-0-0-0--7-----------------------------------|
A|-------0------------0-0-0-0-0-0-0-0-0--5-----------------------------------|
E|-3-3-3-3------3-3-3-3-3-3-3-3-3-0-0-0--------------------------------------|   x2

Добавлено: 14.07.2015
Другие материалы по этой песне:
  • Аккорды и текст

Страница создана 14.07.2015
http://primanota.ru/dandelion-hands/my-friends-dont-know-i-know-they-hate-me-chords.htm
Привет, Гость.
Предлагаем пройти революционный курс по гитаре.
Подарок от PrimaNota.Ru, забирай!