PrimaNota.ru - самый крупный в мире бесплатный архив песенных текстов, аккордов, табулатур и нот


Dance Hall Crashers - Keep On Running - аккорды и текст, таба, видео

Регистрация Запомнить меня
Войти через:  Facebook Google Twitter Vk Yandex Mail.ru

Dance Hall Crashers - Keep On Running - аккорды и текст, таба, видео

Печатать
Просмотров: 127
Keep On Running
Dance Hall Crashers
This is a cool ska song by the Dance Hall Crashers, and if you're paying
attention, you noticed it was written by Tim Armstrong, of Rancid and
formerly of Operation Ivy, when he was called Lint. Anyway, it's not too
tough, here it is:
 
Intro riff: ( is when 2nd guitar comes in)
[e:-------------------------------------------------------
B:-------------------------------------------------------
G:-------------------------------------------------------
D:------4--------4-4-5-5-4-4-----------3-3-2-2-----2----
A:--5-5---5--5-5------------------2-------------3-3---3--
E:----------------------------3-3---3--------------------]

Play this riff 2x, then go into verse:

     D   G
[e:---2---3---
B:---3---3---
G:---2---4---
D:-------5---
A:-----------
E:-----------]

Play the same D-G progression for the chorus, and lead guitar plays the
Intro riff during each chorus.

Solo:		[e:----------------------------------------------------
B:----------------------------------------------------
G:----------------------------------------------------
D:---------------4-5-4-----------5-5-4-4-----4-4-5-5--
A:----2-3-2-3--5-------5--(rest)---------5-5----------
E:--3-------------------------------------------------]
(con't.)
[e:-----------------
B:-----------------
G:-----------------]
[D:--4-4-----5-5-4--] (back to chorus, w/Intro riff)
[A:------5-5--------
E:-----------------]

During last chorus, there is a key change, and the chords change to E-A:
     E   A
[e:---4---5---
B:---5---5---
G:---4---6---
D:-------7---
A:-----------
E:-----------]
Добавлено: 01.01.2014
Другие материалы по этой песне:
  • Аккорды и текст

Страница создана 23.02.2012
http://primanota.ru/dance-hall-crashers/keep-on-running-chords.htm
Привет, Гость.
Предлагаем пройти революционный курс по гитаре.
Подарок от PrimaNota.Ru, забирай!