PrimaNota.ru - самый крупный в мире бесплатный архив песенных текстов, аккордов, табулатур и нот


Dance Gavin Dance - People You Know - таба, видео

Регистрация Запомнить меня
Войти через:  Facebook Google Twitter Vk Yandex Mail.ru

Dance Gavin Dance - People You Know - таба, видео

Печатать
Просмотров: 153
I put it in Guitar Pro. Sounds really good to me. I updated it because I found out 
the wonders of a slowing down program. I was 2 notes off, oh well.

I'm working out the rest of it, just for you guys. lol.


     E  S S S  S S S S S S S S S S S    E  S  S S  S  S S S S S S S S S S
E||----------------------------------|------------------------------------|
B||----------------------------------|--------------------6-5---6---5-----|
G||----------------------------5-----|----------------5h7-----7---------5-|
D||----------------------7-5-----7---|----------5h-7--------------7---7---|
A||-------8---10-----7-------8-----7-|-----7h-8---------------------------|
D||--0--0---0----0-7---0-------------|--8---------------------------------|


  E  S S S  S S S S S S S S S S S    E  S  S S  S  S S S S Q.
----------------------------------|-------------------------------|
----------------------------------|--------------------6-5--------|
----------------------------5-----|------------------7-----7------|
----------------------7-5-----7---|----------5h-7h-8--------------|
-------8---10-----7-------8-----7-|-----7h-8----------------------|
--0--0---0----0-7---0-------------|--8----------------------------|

h - Hammer-on
E - 8th note
S - 16th note
Q - Quarter note (. means added half)
Добавлено: 20.03.2012
Другие материалы по этой песне:

Страница создана 20.03.2012
http://primanota.ru/dance-gavin-dance/people-you-know-chords.htm
Привет, Гость.
Предлагаем пройти революционный курс по гитаре.
Подарок от PrimaNota.Ru, забирай!