PrimaNota.ru - самый крупный в мире бесплатный архив песенных текстов, аккордов, табулатур и нот


Dance Club Massacre - Murder Comes With Smiles - таба, видео

Регистрация Запомнить меня
Войти через:  Facebook Google Twitter Vk Yandex Mail.ru

Dance Club Massacre - Murder Comes With Smiles - таба, видео

Печатать
Просмотров: 248
:18 seconds into the song
Listen for tempo of the muted part
  xxxxxxxxxxxxxxxxxxxxxxxxxxxxxxxxxxxxxxxxx
e|---------------------------------------------------------------------------|
B|---------------------------------------------------------------------------|
G|-----2222------2222------2222----2-----------------------------------------|
D|00003----3----3----300003----3----3----------------------------------------|
A|----------4444----------------444--333-------------------------------------|
D|---------------------------------------------------------------------------|
                        
 
 :33 seconds into the song 
e|------------------------------------|--------------------------------------------|
B|------------------------------------|--------------------------------------------|
G|----------2~---2------------2~---2--|--------------------------------------------|
D|0~----0-3--------3--------3-------3-|--------------------------------------------|
A|-------------------4~---4----------4|---9\---------------------------------------|
D|------------------------------------|---7\---------------------------------------|
e|-----------------------------------------|
B|-----------------------------------------|
G|-----------------------------------------| 
D|-----------------------------------------|X6
A|-555555555-555555555-444444444-444444444-| 
D|-333333333-333333333-222222222-222222222-|



| /  slide up
| \  slide down
| h  hammer-on
| p  pull-off
| ~  vibrato
| +  harmonic
| x  Mute note
===============================================================================
Добавлено: 12.04.2012
Другие материалы по этой песне:
  • Аккорды и текст

Страница создана 22.02.2012
http://primanota.ru/dance-club-massacre/murder-comes-with-smiles-chords.htm
Привет, Гость.
Предлагаем пройти революционный курс по гитаре.
Подарок от PrimaNota.Ru, забирай!