PrimaNota.ru - самый крупный в мире бесплатный архив песенных текстов, аккордов, табулатур и нот


Dananananaykroyd - Muscle Memory - таба, видео

Регистрация Запомнить меня
Войти через:  Facebook Google Twitter Vk Yandex Mail.ru

Dananananaykroyd - Muscle Memory - таба, видео

Печатать
Просмотров: 197
-------------------------------------------------------------------------------
			     Muscle Memory - Dananananaykroyd
-------------------------------------------------------------------------------
Tabbed by: JjjDdd  [first tab yo!]
Email: jxsxphdxxgxn@gmail.com

hahahey, im joe, and this is my first tab.
Dananananaykroyd are the coolest dudes and deserve great success.
so buy their albums and shit

listen to the song to figure out the correct strumming pattern

	Intro
e|----------------------------------------------------------+-----------------|
B|----------------------------------------------------------+-----------------|
G|-7-7--7/9--9---9-9--9/11-11---11-11--11/12-12--9---(9/11)-+-----------------|
D|-------------------------------------------------x8(----)--(first time only)|
A|-5-5--5/7--7---7-7--7/9--9----9--9---9--10-10--7---(7-9-)-------------------|
E|----------------------------------------------------------------------------|


	Chorus
e|----------------------------------------------------------------------------|
B|----------------------------------------------------------------------------|
G|--7-7--7/9--9---9-9--9/11-11---11-11--11/12---7-----------------------------|
D|------------------------------------------------x8--------------------------|
A|--5-5--5/7--7---7-7--7/9--9----9--9---9--10---5-----------------------------|
E|----------------------------------------------------------------------------|


	Verse
e|---------------------------------------------------------------------------|
B|---------------------------------------------------------------------------|
G|----7--7-----------------------7-7-9-9-1111-12--(14\12)--------------------|
D|----------5h7h9-5------x3-----------------------(-----)-(second time)------|
A|----5--5----------7/9----------5-5-7-7-9-9--10--(12\10)--------------------|
E|---------------------------------------------------------------------------|


	Pre-Chorus
e|-----------------------------------------------------0---------------------|
B|-----------------------------------------------------0---------------------|
G|--5-5--5555-5--5-5--5555-5--5-5--5555-5--2~~---------0---------------------|
D|-----------------------------------------2~~-------------------------------|
A|--3-3--3333-3--3-3--3333-3--3-3--3333-3--0~~-------------------------------|
E|---------------------------------------------------------------------------|

	Solo (notes played slightly tremolo-ey, and played over chorus chords i think)
e|---------------------------------------------------------------------------|
B|---------------------------------------------------------------------19b---|
G|--------19-19-19-19-16---19-16--19-19-19-19-16--19-16-19-16-14-16-14-------|
D|---------------------------------------------------------------------------|
A|---------------------------------------------------------------------------|
E|---------------------------------------------------------------------------|
				
	Then just mess around with similar notes, that i cant figure out.. sorry

		Breakdown
e|--[crazy sounds]---------------------------------------------------0+------|
B|--[crazy sounds]---------------------------------------------------0+------|
G|--[crazy sounds]----7-7----7-7-7---7--\--5--5-5----5-5-5-----------0+------|
D|--[crazy sounds]--------x6---------------------x6---------x2-------0+------|
A|--[crazy sounds]----5-5----5-5-5---5--\--3--3-3----3-3-3-----------0+------|
E|--[crazy sounds]---------------------------------------------------0+------|

	Ending
e|---------------------------------------------------------------------------|
B|---------------------------------------------------------------------------|
G|----7--7-------------------7--7--------------------------------------------|
D|----------5h7h9-5----------------------------------------------------------|
A|----5--5----------5h7p5h7--5--5--------------------------------------------|
E|---------------------------------------------------------------------------|


i hope you found this useful! 
************************************

| /   slide up
| \   slide down
| h   hammer-on
| p   pull-off
| ~   ring out
| +   harmonic
| x   Mute note
| b   Bend
| t   tremolo picking

************************************
Добавлено: 11.04.2012
Другие материалы по этой песне:
  • Аккорды и текст

Страница создана 11.04.2012
http://primanota.ru/dananananaykroyd/muscle-memory-chords.htm
Привет, Гость.
Предлагаем пройти революционный курс по гитаре.
Подарок от PrimaNota.Ru, забирай!