PrimaNota.ru - самый крупный в мире бесплатный архив песенных текстов, аккордов, табулатур и нот


Dan Tyminski - Road To Nash Vegas - таба, видео

Регистрация Запомнить меня
Войти через:  Facebook Google Twitter Vk Yandex Mail.ru

Dan Tyminski - Road To Nash Vegas - таба, видео

Печатать
Просмотров: 219
This is my first tab, it's of road to nash vegas
off the crossroads guitar festival DVD.
I used the video of two guys playin it in
their garage on youtube to try and figure
out how it went.
Heres the link: http://www.youtube.com/watch?v=QgzHWbM3ajQ

This is only  the first part of the song , i haven't figured out the rest
yet and so it's not 100% accurate, but i thought since theres no tabs on
here of it i might aswell tab out some of it to help get people started.

Tuning: drop D
Capo on 2nd fret

It's a kinda of strum/pick mainly with the top two strings
to give that blue grass kinda sound listen to the song to
figure out the exact strumming.

E|---------------------------------------------------------------------------|
B|---------------------------------------------------------------------------|
G|---------------------------------------------------------------------------|
D|---------------------------------------------------------------------------|
A|-3h5-5-5--3h5-5-5-5-5-5-3-3-3-3-2-2-2-x-0-0-0-0-5-5/8-8-\7-7-7-7--5-5-5----|
D|-0-0-0-0--0-0-0-0-0-0-0-0-0-0-0-0-0-0-x-0-5-3-0-0-0-0-0--0-0-0-0--0-0-0----|


E|---------------------------------------------------------------------------|
B|---------------------------------------------------------------------------|
G|---------------------------------------------------------------------------|
D|---------------------------------------------------------------------------|
A|-3-3-3-3-3h5-5-5-3h5-5-5-5-5--3h5-5-5--------------------------------------|
D|-0-0-0-0-0-0-0-0-0-0-0-0-0-0--0-0-0-0--0-3-5-3-----------------------------|


then go straight on to strumming this:(1)
E|-0---0--0--0----0-0--0--0----0--0----0-------0---------------------------|
B|-3---3--3--3----3-3--3--3----3--3----3----3--3---------------------------|
G|-0h2-2--2--2p0--0-0--0--0----0--0----0----0--0---------------------------|
D|-0---0--0--0----0-0--2--0h2--2--2p0--2p0--0--0---------------------------|play twice ...
A|-0---0-----0----0-0--0--0----0--0----0----0--2---------------------------|
D|----------------------------^^-------------------------------------------|
                               |there
.... but on the 2nd time end---|
and then play this:
E|----------------------------------------------------------|
B|----------------------------------------------------------|
G|----------------------------------------------------------|
D|-------------0h2p0----------------------------------------|
A|-4-2-4-5-0h2-------2--------------------------------------|play (1) again twice...
D|-0-0-0-0--------------------------------------------------|

...then on second time, this time end on the chord just after the one you ended on last 
one with the 2p0)
and play this:
E|------------------------------------------------------------------|
B|-----------------------------3-3---------------3-3-3-3-3----------|
G|-----------------------------2-2---------------2-2-2-2-2----------|
D|-----------------------------0-0---------------0-0-0-0-0----------|
A|-2-2-2-2-2h4-4-4-4-2-2-------------4-2-2--------------------------|
D|-0-0-0-0-0-0-0-0-0-0-0-3b-0--------0-0-0-3b-0---------------------|

Thats as far as ive gotten for now. If anyone else has the whole tab
of this then i recommend they post it on ultimateguitar cause it's an amazing song.
Добавлено: 25.07.2012
Другие материалы по этой песне:
  • Аккорды и текст

Страница создана 24.02.2012
http://primanota.ru/dan-tyminski/road-to-nash-vegas-chords.htm
Привет, Гость.
Предлагаем пройти революционный курс по гитаре.
Подарок от PrimaNota.Ru, забирай!