PrimaNota.ru - самый крупный в мире бесплатный архив песенных текстов, аккордов, табулатур и нот


Dan Sartain - Od Life - таба, видео

Регистрация Запомнить меня
Войти через:  Facebook Google Twitter Vk Yandex Mail.ru

Dan Sartain - Od Life - таба, видео

Печатать
Просмотров: 146
                         OD Life - Dan Sartain
-------------------------------------------------------------------------------
Tabbed by:greenmonty97
E-mail:greenmonty97@yahoo.com

Tuning:Standard
  Intro
e|--------------------------------------------------------------------------------------|
B|--------------------------------------------------------------------------------------|
G|---------------------------------------------8---------8------------------------------|
D|---10---------- 8-------------5--------------8----8----8-----8------------------------|
A|---10 (8x)------8--(8x)-------5---(8x)-------6----8----6-----8------------------------|
E|---8------------6-------------3-------------------6----------6------------------------|
    Verse- strumming pattern is easy to figure out if you listen to the song
e|------------------------------------------------------------------------------------|
B|------------------------------------------------------------------------------------|
G|------------------------------8-------8---------------------------------------------|
D|----8----10---8----10----6----8--8----8---8-----------------------------------------|
A|----8----10---8----10----6----6--8----6---8-----------------------------------------|
E|----6----8----6----8-----4-------6--------6-----------------------------------------|
   chorus
e|---------------------------------------------------------------------------------|
B|---------------------------------------------------------------------------------|
G|---------------8-----------------------------------------------------------------|
D|--10-----------8---(8x)----------------------------------------------------------|
A|--10--(8x)-----6-----------------------------------------------------------------|
E|--8------------------------------------------------------------------------------|
That's pretty much the song it repeats these 3 parts the solo is basically in C pentatonic


************************************

| /   slide up
| \   slide down
| h   hammer-on
| p   pull-off
| ~   vibrato
| +   harmonic
| x   Mute note
| b   Bend
| pb  Pre-bend
| br  Bend release
| pbr Pre-bend release
| brb Bend release bend

************************************
Добавлено: 05.08.2015
Другие материалы по этой песне:
  • Аккорды и текст

Страница создана 05.08.2015
http://primanota.ru/dan-sartain/od-life-chords.htm
Привет, Гость.
Предлагаем пройти революционный курс по гитаре.
Подарок от PrimaNota.Ru, забирай!