PrimaNota.ru - самый крупный в мире бесплатный архив песенных текстов, аккордов, табулатур и нот


Dan Miller - First Real One - таба, видео

Регистрация Запомнить меня
Войти через:  Facebook Google Twitter Vk Yandex Mail.ru

Dan Miller - First Real One - таба, видео

Печатать
Просмотров: 114
hope ppl like it.

Intro/Verse 1
e | -----------------------------------------|
B | -----------------------------------------|
G | ---------------------------3-1-------3-1-|X2
D | -------3-1-------3-1---3-1-------3-0-----|
A | ---3-1-------3-1-------------------------|
E | -3---------3---------3---------3---------|
Chorus
e |-5-5---7-7-7---3-3-3---0-0-0-|--5-5---7-7-7---3-3-3---0-0-0-|
B |-5-5---7-7-7---3-3-3---0-0-0-|--5-5---7-7-7---3-3-3---0-0-0-|
G |-6-6---8-8-8---4-4-4---1-1-1-|--6-6---8-8-8---4-4-4---1-1-1-|X4
D |-7-7---9-9-9---5-5-5---2-2-2-|--7-7---9-9-9---5-5-5---2-2-2-|
A |-7-7---9-9-9---5-5-5---2-2-2-|--7-7---9-9-9---5-5-5---2-2-2-|
E |-5-5---7-7-7---3-3-3---0-0-0-|--5-5---7-7-7---3-3-3---0-0-0-|
verse 2
e | -----------------------------------------|
B | -----------------------------------------|
G | ---------------------------5-3-------5-3-|X2
D | -------5-3-------5-3---5-3-------5-2-----|
A | ---5-3-------5-3-------------------------|
E | -5---------5---------5---------5---------|
Chorus
e |-5-5---7-7-7---3-3-3---0-0-0-|--5-5---7-7-7---3-3-3---0-0-0-|
B |-5-5---7-7-7---3-3-3---0-0-0-|--5-5---7-7-7---3-3-3---0-0-0-|
G |-6-6---8-8-8---4-4-4---1-1-1-|--6-6---8-8-8---4-4-4---1-1-1-|X4
D |-7-7---9-9-9---5-5-5---2-2-2-|--7-7---9-9-9---5-5-5---2-2-2-|
A |-7-7---9-9-9---5-5-5---2-2-2-|--7-7---9-9-9---5-5-5---2-2-2-|
E |-5-5---7-7-7---3-3-3---0-0-0-|--5-5---7-7-7---3-3-3---0-0-0-|
solo
e |-5p3p0-5p3p0-5p3p0-5p3p0-3-3/7-8-7-3-5~-3-2-0~|
B |----------------------------------------------|
G |----------------------------------------------|
D |----------------------------------------------|
A |----------------------------------------------|
E |----------------------------------------------|
bridge
e |-----------------------------|
B |-----------------------------|
G |-555-222-------------222-----|
D |-555-222-333-555-222-222-222-|
A |-333-000-333-535-222-000-222-|
E |---------111-333-000-----00o-|
Chorus
e |-5-5---7-7-7---3-3-3---0-0-0-|--5-5---7-7-7---3-3-3---0~-|
B |-5-5---7-7-7---3-3-3---0-0-0-|--5-5---7-7-7---3-3-3---0~-|
G |-6-6---8-8-8---4-4-4---1-1-1-|--6-6---8-8-8---4-4-4---1~-|X2
D |-7-7---9-9-9---5-5-5---2-2-2-|--7-7---9-9-9---5-5-5---2~-|
A |-7-7---9-9-9---5-5-5---2-2-2-|--7-7---9-9-9---5-5-5---2~-|
E |-5-5---7-7-7---3-3-3---0-0-0-|--5-5---7-7-7---3-3-3---0~-|

sorry no lyrics yet.
Добавлено: 31.07.2012
Другие материалы по этой песне:
  • Аккорды и текст

Страница создана 31.07.2012
http://primanota.ru/dan-miller/first-real-one-chords.htm
Привет, Гость.
Предлагаем пройти революционный курс по гитаре.
Подарок от PrimaNota.Ru, забирай!