PrimaNota.ru - самый крупный в мире бесплатный архив песенных текстов, аккордов, табулатур и нот


Dan Griffin - Stars And Satellites - таба, видео

Регистрация Запомнить меня
Войти через:  Facebook Google Twitter Vk Yandex Mail.ru

Dan Griffin - Stars And Satellites - таба, видео

Печатать
Просмотров: 65
Dan Griffin - Stars and Satellites

Tabbed by Stephen Tearoe ( aka HowsYouDoing )

So I was sitting on my bed the other day wondering what song to learn next, and my friend
told me to learn this song, and to my bewilderment there were no tabs for it! 

So I made my own. 

Bear in mind, this will be slightly incorrect from how Dan Griffin actually plays it, there 
may be some little discrepancies, but it is close enough to play to and to find out how he 
actually plays it if you want to learn his way. This works for me. And besides, it was 
better than what was already out there (which was nothing, at this point in time!)

Please Rate this Tab once you are done with it :)

Capo 4 (Tab is relative to Capo)

Intro (0:00-0:12)


e|--------------------------------------------------------------------------------------|
B|---------------3---------3-------3-------3-----------3---------3-------3-------3------|
G|--0~-------0-------2p0-4------0------0-----0-----0-------2p0-4------0------0-----0----|
D|-----------0-------0--------2---2---2--2---------0-------0--------2---2---2--2--------|
A|--------------------------------------------------------------------------------------|
E|--3~-----3---3---3-----------------------------3---3---3------------------------------|


Verse 1 (0:12-0:48)
(Spaced out for the timing)

(1st)I was born in the City of Toronto, Given on the third of july
(2nd)Saying, Mother do you know where Ive been hiding? Father do you know where Ive been?

e|--------------------------------------------------------|
B|------------3---------------3------------3--------3-----|
G|------0-------0-------0-------0------0------2p0-4-------| X2
D|--------2---------------2------------0------0-----------|
A|--3---------------3-------------------------------------|
E|-----------------------------------3---3---3------------|

(1st)Beneath the stars and the satellites and the ceiling of my room and I would cry
(2nd)In the yard under the maple tree, these shoes are getting too small for my feet.

e|-----------------------------------------------------------------|
B|------------3---------------3---------------3---------------3----|
G|------0-------0-------0-------0-------0-------0-------0-------0--|
D|--------2---------------0---------------2---------------2--------|
A|--3---------------2---------------0---------------0--------------|
E|-----------------------------------------------------------------|



e|---------------------------------------------|
B|--------3--------3--------3-------3----------|
G|----0------2p0-4-------0------0-----0--------|
D|----0------0---------2---2---2--2------------|
A|---------------------------------------------|
E|--3---3---3----------------------------------|

Repeat (Sing 2nd line)


Chorus (0:48-1:10)

And it wont be long before Im on my own

e|-------------------------------------------------------------------------|
B|--------5--------7--------8-------3--------3---------3-------3-------3---|
G|------0-------0--------0-------0-------0-------2p0-4------0------0-----0-|
D|---------------------------------------0-------0--------2---2---2--2-----|
A|--3-------/5-------/7-------0--------------------------------------------|
E|-------------------------------------3---3---3---------------------------|


And Im hoping that the stars and the satellites will always bring me home

e|-----------------------------------------------------------------|
B|------------3---------------3---------------3---------------3----|
G|------0-------0-------0-------0-------0-------0-------0-------0--|
D|--------2---------------0---------------2---------------2--------|
A|--3---------------2---------------0---------------0--------------|
E|-----------------------------------------------------------------|

e|-------------------------------------------------------------------------------|
B|--------3---------3-------3-------3-----------3---------3-------3-------3------|
G|----0-------2p0-4------0------0-----0-----0-------2p0-4------0------0-----0----|
D|----0-------0--------2---2---2--2---------0-------0--------2---2---2--2--------|
A|-------------------------------------------------------------------------------|
E|--3---3---3-----------------------------3---3---3------------------------------|

Verse 2 (1:10-1:45)

(1st)Brother do you know what Ive been wishing, That I would let the time fly if I could 
(2nd)Twenty five years old and I worry, That I might never take the time I need

e|--------------------------------------------------------|
B|------------3---------------3------------3--------3-----|
G|------0-------0-------0-------0------0------2p0-4-------| X2
D|--------2---------------2------------0------0-----------|
A|--3---------------3-------------------------------------|
E|-----------------------------------3---3---3------------|

(1st)Cuz my eyes have always tried to see much further than my mind has understood
(2nd)Cuz my head has always been so much older than my shoulders can believe

e|-----------------------------------------------------------------|
B|------------3---------------3---------------3---------------3----|
G|------0-------0-------0-------0-------0-------0-------0-------0--|
D|--------2---------------0---------------2---------------2--------|
A|--3---------------2---------------0---------------0--------------|
E|-----------------------------------------------------------------|



e|---------------------------------------------|
B|--------3--------3--------3-------3----------|
G|----0------2p0-4-------0------0-----0--------|
D|----0------0---------2---2---2--2------------|
A|---------------------------------------------|
E|--3---3---3----------------------------------|

Repeat (Sing 2nd line)


Chorus (1:45-2:07)

And it wont be long before Im on my own

e|-------------------------------------------------------------------------|
B|--------5--------7--------8-------3--------3---------3-------3-------3---|
G|------0-------0--------0-------0-------0-------2p0-4------0------0-----0-|
D|---------------------------------------0-------0--------2---2---2--2-----|
A|--3-------/5-------/7-------0--------------------------------------------|
E|-------------------------------------3---3---3---------------------------|

And Im hoping that the stars and the satellites will always bring me home

e|-----------------------------------------------------------------|
B|------------3---------------3---------------3---------------3----|
G|------0-------0-------0-------0-------0-------0-------0-------0--|
D|--------2---------------0---------------2---------------2--------|
A|--3---------------2---------------0---------------0--------------|
E|-----------------------------------------------------------------|

e|-------------------------------------------------------------------------------|
B|--------3---------3-------3-------3-----------3---------3-------3-------3------|
G|----0-------2p0-4------0------0-----0-----0-------2p0-4------0------0-----0----|
D|----0-------0--------2---2---2--2---------0-------0--------2---2---2--2--------|
A|-------------------------------------------------------------------------------|
E|--3---3---3-----------------------------3---3---3------------------------------|

Outro Chorus (2:07-2:50)
No, it wont be long before Im gone its true

e|-------------------------------------------------------------------------|
B|------5-5--------7--------8-------3--------3---------3-------3-------3---|
G|--------------0--------0-------0-------0-------2p0-4------0------0-----0-|
D|---------------------------------------0-------0--------2---2---2--2-----|
A|--3-------/5-------/7-------0--------------------------------------------|
E|-------------------------------------3---3---3---------------------------|

Now Im hoping that the stars and the satellites,
                                        (Okay, I know this part it off slightly, but work with it)
e|---------------------------------------------------------------------------------|
B|------------3---------------3---------------3---------------3---------------3----|
G|------0-------0-------0-------0-------0-------0-------0-------0------0-------0---|
D|--------2---------------0---------------2---------------2---------------2--------|
A|--3---------------2---------------0---------------0---------------0--------------|
E|---------------------------------------------------------------------------------|

                                                                        Will bring me home to you

e|---------------------------------------------------------------------------------|
B|------------3---------------3---------------3---------------3---------------3----|
G|------0-------0-------0-------0-------0-------0-------0-------0-------0-------0--|
D|--------2---------------2---------------2---------------2---------------2--------|
A|--0---------------0---------------0---------------0---------------0--------------|
E|---------------------------------------------------------------------------------|

                                                                              Bring me home to you
e|-------------------------------------------------------------------------------|
B|--------3---------3-------3-------3-----------3---------3-------3-------3------|
G|----0-------2p0-4------0------0-----0-----0-------2p0-4------0------0-----0----|
D|----0-------0--------2---2---2--2---------0-------0--------2---2---2--2--------|
A|-------------------------------------------------------------------------------|
E|--3---3---3-----------------------------3---3---3------------------------------|

e|--------------------------------------------------------------------------------------|
B|--------3---------3-------3-------3-----------3---------3-------3---------------------|
G|----0-------2p0-4------0------0-----0-----0-------2p0-4------0---------0--------0~----|
D|----0-------0--------2---2---2--2---------0-------0--------2---2-----4---2--0---0~----|
A|--------------------------------------------------------------------------------x-----|
E|--3---3---3-----------------------------3---3---3-------------------------------3~----|


Enjoy playing!!


http://www.dangriffin.ca/
Добавлено: 21.07.2013
Другие материалы по этой песне:
  • Аккорды и текст

Страница создана 21.07.2013
http://primanota.ru/dan-griffin/stars-and-satellites-chords.htm
Привет, Гость.
Предлагаем пройти революционный курс по гитаре.
Подарок от PrimaNota.Ru, забирай!