PrimaNota.ru - самый крупный в мире бесплатный архив песенных текстов, аккордов, табулатур и нот


Dan Arborise - Days Even Years - таба, видео

Регистрация Запомнить меня
Войти через:  Facebook Google Twitter Vk Yandex Mail.ru

Dan Arborise - Days Even Years - таба, видео

Печатать
Просмотров: 135
Days Even Years - Dan Arborise

Tuning CBDGBD - I think the origonal is another half step down, with capo on fourth, but 
this way makes it easy
to change from standard. The tab isn't exactly the same - its more simple but similar 
enough to sound good I
think. Also apologies for leaving out small bridge section... couldn't work that bit out!

CAPO 3rd Fret - all tab relative to capo.

Part A

D|-----------------0-----0-----------------------------0-----0--------------|
B|-----0-----------------------0-----------0-----------------------0--------|
G|-----------0-----------------------0-----------0-----------------------0--|
D|-----5--------5-----5-----------5--------4--------4-----4-----------4-----|
B|--0-----0--------0--------0-----------0-----0--------0--------0-----------|
C|--------------------------------------------------------------------------|

Part B

D|--------------------9--------------------------------9-----------------|
B|--5-----------5-----------------0--------5-----------------------0-----|
G|--------0-----------------0--------------------0-----------0-----------|
D|-----0-----------0-----0-----------0-----0--------0-----0-----------0--|
B|--5--------5--------5--------5--------5-----5--------5--------5--------|
C|-----------------------------------------------------------------------|

Part C

D|-----------------0-----0-------------------------0-----------------------|
B|-----0-----------------------0-------------------------0-----------0-----|
G|-----------0-----------------------0h2-----2-----------------0-----------|
D|-----0--------0-----0-----------0-------0-----------0-----0-----------0--|
B|--0-----0--------0--------0--------0----------0--------0--------0--------|
C|-------------------------------------------------------------------------|

Part D

D|-----------------0-----------------------2-----------0--------------------|
B|-----0-----------------------0-----------------0-----------------0--------|
G|-----------0-----------0-----------0-----------------------0-----------0--|
D|-----4--------4-----4-----------4--------0--------0-----0-----------0-----|
B|--------------------------------------------------------------------------|
C|--4-----4--------4--------4-----------0-----0--------0--------0-----------|

Structure:
INTRO           (A x2) B C B C
VERSE 1 (A x2) B C B C
VERSE 2         (A x2) B C B C
BRIDGE  D C D C
VERSE 3         (A x2) B C B C
BRIDGE  D C D C

Bridge section then repeats till finish.
Добавлено: 10.08.2015
Другие материалы по этой песне:
  • Аккорды и текст

Страница создана 10.08.2015
http://primanota.ru/dan-arborise/days-even-years-chords.htm
Привет, Гость.
Предлагаем пройти революционный курс по гитаре.
Подарок от PrimaNota.Ru, забирай!