PrimaNota.ru - самый крупный в мире бесплатный архив песенных текстов, аккордов, табулатур и нот


Dan Andriano - Way Too Many Times - бас-таба, видео

Регистрация Запомнить меня
Войти через:  Facebook Google Twitter Vk Yandex Mail.ru

Dan Andriano - Way Too Many Times - бас-таба, видео

Печатать
Просмотров: 110
Artist: Dan Andriano and Mike Felumlee (both of Alkaline Trio)
Album: Split EP
Song: Way Too Many Times
Tuning: Standard (EADG)
Tabbed by: Joe Sargent

Intro
|------------------------------------------------------------------------|
|----------------------------------------7~------------------------------|
|4~-------------------------------0~-------------------------------------|
|----------------4~--------------------------------------0~--------------|

|-----------------------------------------------9~-----------------------|
|--------------------------6~----------------/7--------------------------|
|4~-----------------------------------0~---------------------------------|
|----------------4~--------------------------------------0~--------------|

Verse
|------------------------------------------------------------------------|
|------------------------------------------------------------------------|
|4~-------------------------------0~-------------------------------------|
|----------------4~--------------------------------------0~--------------|

|------------------------------------------------|
|------------------------------------------------|
|4~--------------------6/11~-----0~--------------|
|----------------4~------------------------------|


Bridge
"This one's for the world..."
|--------------------------------|
|--------------------------------|
|--------------------------------| X2
|0-0-0-0-4-4-4-4-5-5-5-5-5-5-5-5-|

|--------------------------------|
|--------------------------------|
|--------------------------------|
|0-0-0-0-7-7-7-7-5-5-5-5-5-5-5-5-|

|--------------------------------|
|--------------------7-7-----7-7-|
|----------------0-0-----0-0-----|
|0-0-0-0-7-7-7-7-----------------|

(this is the fast bit, and it works for me but it doesn't sound correct)
|----------------------------------------|
|2R----2-0-4R----4-0-6R----6-0-7----9----|
|----------------------------------------|
|----------------------------------------|

Chorus 
"Whooooooooooaaaah"
|----------------------------------|--------------------------------|
|----------------------------/9-76-|--------------------------------|
|----------------------------------|--------------------------------|
|0-0-0-0-7-7-7-7-4-4-4-4-5-5-------|0-0-0-0-7-7-7-7-4-4-4-4-5-5-5-5-|

|---------------------------------|----------------|
|------------------------/7-7-7-7-|----7-7-----7-7-|
|---------------------------------|0-0-----0-0-----|
|0-0-0-0-7-7-7-7-4-4-4-4----------|----------------|

Verse
|------------------------------------------------------------------------|
|------------------------------------------------------------------------|
|4~-------------------------------0~-------------------------------------|
|----------------4~--------------------------------------0~--------------|

|-------------------------------------------------9~---|
|------6~-------------------------------------/7-------|
|4~----------4~-------------------0~-------------------|
|-----------------4~-----------------------------------|

Bridge- same as last time
"I'd roll right into heaven..."
|--------------------------------|
|--------------------------------|
|--------------------------------| X2
|0-0-0-0-4-4-4-4-5-5-5-5-5-5-5-5-|

|--------------------------------|
|--------------------------------|
|--------------------------------|
|0-0-0-0-7-7-7-7-5-5-5-5-5-5-5-5-|

|--------------------------------|
|--------------------7-7-----7-7-|
|----------------0-0-----0-0-----|
|0-0-0-0-7-7-7-7-----------------|

|----------------------------------------|
|2R----2-0-4R----4-0-6R----6-0-7----9----|
|----------------------------------------|
|----------------------------------------|

Chorus
"Whooooooooooaaaah"
|--------------------------------|----------------------------------|
|--------------------------------|----------------------------/9-76-|
|--------------------------------|----------------------------------|
|0-0-0-0-7-7-7-7-4-4-4-4-5-5-5-5-|0-0-0-0-7-7-7-7-4-4-4-4-5-5-------|

|----------------------------------------|----------------|
|----------------------------------------|----7-7-----7-7-|
|----------------------------------------|-0-0-----0-0----|
|0-0-0-0-7-7-7-7-4-4-4-4-5-5-5-5-5-5-5-5-|----------------|

Middle 8
|---------------------------------------------------------------|
|----6-6-----6-6-----7-7-----7-7-----7-7-----7-7----------------| X2
|4-4-----4-4-----5-5-----5-5-----0-0-----0-0--------7-7-----7-7-|
|------------------------------------------------0-0----0-0-----|
Then...
|---------------|
|---------------|
|---------------|
|4-4-4-4-5-5-5-5|

For the solo just play the chorus again

Then end with
|--------------------------------------------------|
|--------------------------------------------------|
|-----------0~-------------------------------------|
|0~-------------------0~---------------------------|
Добавлено: 26.03.2012
Другие материалы по этой песне:
  • Аккорды и текст

Страница создана 26.03.2012
http://primanota.ru/dan-andriano/way-too-many-times-chords.htm
Привет, Гость.
Предлагаем пройти революционный курс по гитаре.
Подарок от PrimaNota.Ru, забирай!