PrimaNota.ru - самый крупный в мире бесплатный архив песенных текстов, аккордов, табулатур и нот


Dan Andriano - This Light - таба, видео

Регистрация Запомнить меня
Войти через:  Facebook Google Twitter Vk Yandex Mail.ru

Dan Andriano - This Light - таба, видео

Печатать
Просмотров: 121
Уроки эстрадного вокала в Санкт-Петербурге
-------------------------------------------------------------------------------
          THIS LIGHT - Dan Andriano (Dan Andriano In The Emergency Room)
-------------------------------------------------------------------------------
Tabbed by: svhoffman

Tuning: EADGBe (Capo 2)

Intro

e|---------------------------------------------0----------------1-0----------|
B|---------1-----------------3-------------------1------------------3-1------|
G|-----------0-----------------0---------------------0--------2--------------|
D|-----2---------0--------0--------0--------2------2-------3-----------------|
A|--3----------3-------2---------2-------0-----------------------------------|
E|---------------------------------------------------------------------------|

e|---------------------------------------------------------------------------|
B|---------1------------------3/5\3p0-----------1---------------1------------|
G|-----------0------------------------------------0---0---------0------------|
D|-----2---------0--------------------------2-------2---------2--------------|
A|--3----------3----------2--------------3-----------------3--------0-2------|
E|---------------------3------------------------------------------3-----3----|

Verse

e|---------------------------------------------0----------------1-0----------|
B|---------1-----------------3-------------------1------------------3-1------|
G|-----------0-----------------0---------------------0--------2--------------|
D|-----2---------0--------0--------0--------2------2-------3-----------------|
A|--3----------3-------2---------2-------0-----------------------------------|
E|---------------------------------------------------------------------------|

e|---------------------------------------------------------------------------|
B|---------1-----------------3-----------------1----------------1------------|
G|-----------0-----------------0-----------------0---0------------0---0------|
D|-----2---------0-----------------0--------2------2----------2-----2--------|
A|--3----------3----------2------2-------3-----------------3-----------------|
E|---------------------3-----------------------------------------------------|


Chorus (Listen for strumming pattern)

e|---X---3---0---0--------X---3---0--------X---3---0---0--------X---3--------|
B|---1---3---1---1--------1---3---1--------1---3---1---1--------1---3--------|
G|---2---0---0---3--------2---0---2--------2---0---0---2--------2---0--------|
D|---3---0---2---2--------3---0---2--------3---0---2---2--------3---0--------|
A|---X---2---3---3--------X---2---0--------X---2---3---0--------X---2--------|
E|---X---3---X---X--------X---3---X--------X---3---X---X--------X---3--------|

     F   G   C   C7       F   G   Am       F   G   C   Am       F   G


Bridge (Listen for strumming pattern)

e|---0---0--------0---0---3---X------0---3------0---0---3---X------3---------|
B|---1---1--------1---1---3---1------1---3------1---1---3---1------3---------|
G|---0---3--------2---0---0---2------2---0------2---0---0---2------0---------|
D|---2---2--------2---2---0---3------0---0------2---2---0---3------0---------|
A|---3---3--------0---3---2---X------3---2------0---3---2---X------2---------|
E|---X---X--------X---X---3---X------X---3------X---X---3---X------3---------|

     C   C7       Am  C   G   F      C   G      Am  C   G   F      G
    (Lead in)


Final Chorus (Listen for strumming pattern)

e|---X---3---0---0-----X---3---0-----X---3---0---0-----X---3---0-----X---3---|
B|---1---3---1---1-----1---3---1-----1---3---1---1-----1---3---1-----1---3---|
G|---2---0---0---3-----2---0---2-----2---0---0---2-----2---0---2-----2---0---|
D|---3---0---2---2-----3---0---2-----3---0---2---2-----3---0---2-----3---0---|
A|---X---2---3---3-----X---2---0-----X---2---3---0-----X---2---0-----X---2---|
E|---X---3---X---X-----X---3---X-----X---3---X---X-----X---3---X-----X---3---|

     F   G   C   C7    F   G   Am    F   G   C   Am    F   G   Am    F   G 


Outro

e|---------------------------------------------0----------------1-0----------|
B|---------1-----------------3-------------------1------------------3-1------|
G|-----------0-----------------0---------------------0--------2--------------|
D|-----2---------0--------0--------0--------2------2-------3-----------------|
A|--3----------3-------2---------2-------0-----------------------------------|
E|---------------------------------------------------------------------------|

e|---------------------------------------------------------------------------|
B|---------1------------------3/5\3p0-------1--------------------------------|
G|-----------0-----------------------------0---------------------------------|
D|-----2---------0------------------------2----------------------------------|
A|--3----------3----------2--------------3-----------------------------------|
E|---------------------3-----------------------------------------------------|

                                         C (hold)


ORDER

Intro
Verse x2
Chorus
Intro
Verse x2
Chorus
Bridge
Verse
Final Chorus
Outro


Lyrics (Source: http://www.plyrics.com/lyrics/danandriano/thislight.html)

Is there something that I should know
Some handshake or some secret code
To get me through your doorway one more time
Is there a button I can press
To block out noise from all the rest
You're the only sound I need to hear

See I'm burning up out here in this light
Looked so pretty from the inside,
but out here it's too damn bright
Now your voice sounds so far away,
so I respond to the delay
And I wait to hear you say to come home

Is there a place that I can go
To forget the things I've never known
Because I don't want to want anymore
Is there a dream that I can have
Where I don't wake up freezing and sad
Or could you show me how to sleep on my back

See I'm burning up out here in this light
Looked so pretty from the inside,
but out here it's too damn bright
Now your voice sounds so far away,
so I respond to the delay
And I wait to hear you say to come home

I can't always be right there,
but I can get there soon
I can't always hold your hand,
But I will always love you

See I'm freezing out here in this light
Looked so pretty from the inside,
but out here it's too damn bright
Now your voice sounds so far away,
so I respond to the delay
And I wait to hear you say to come home.

************************************

| /   slide up
| \   slide down
| h   hammer-on
| p   pull-off
| ~   vibrato
| +   harmonic
| x   Mute note
| b   Bend
| pb  Pre-bend
| br  Bend release
| pbr Pre-bend release
| brb Bend release bend

************************************
Добавлено: 07.06.2016
Другие материалы по этой песне:

Страница создана 29.03.2012
http://primanota.ru/dan-andriano/this-light-chords.htm
Привет, Гость.
Предлагаем пройти революционный курс по гитаре.
Подарок от PrimaNota.Ru, забирай!