PrimaNota.ru - самый крупный в мире бесплатный архив песенных текстов, аккордов, табулатур и нот


Damon And Naomi - And You Are There - таба, видео

Регистрация Запомнить меня
Войти через:  Facebook Google Twitter Vk Yandex Mail.ru

Damon And Naomi - And You Are There - таба, видео

Печатать
Просмотров: 87
Damon & Naomi - And You Are There
Album: False Beats and True Hearts
Transcribed by moc0007@gmail.com

Intro:
Guitar 1:
G--- D--- Em--- D--- C--- ---- G--- ----(x2)
Guitar 2:
e:---------------------------14~----10~----8~-7~-|
B:----10-12~s15~------10-12~---------------------|
G:-12--------------12----------------------------|
D:-----------------------------------------------|
A:-----------------------------------------------|
E:-----------------------------------------------| (x2)

G        D                Em        D      C                   G
Like the sunlight falling through a fence, the image comes and goes
G    D        Em        D      C                      G
Memories flickering within me, where they are I don't know

Em               Bm
An orange light, a flash of white
Em                      C
Feel the sun, hear that sound within me

G           D     Em     D      C                      G
The past is but a moving image, it reappears then disappears
G            D          Em        D          C                   G
And though I can't understand its movements, it erases all those years

Em               Bm
An orange light, a flash of white
Em                      C
Feel the sun, hear that sound within me

G           D   Em   D   C      G
And you are the----------|re once again
And you are the----------|re once again

Em               Bm
An orange light, a flash of white
Em                      C
Feel the sun, hear that sound within me

G      D     Em      D       C                      G
What I carry deep inside me, these feelings come and go
G          D       Em     D        C                     G
The past I thought was so distant, flickers like an afterglow

G           D   Em   D   C      G
And you are the------------------------|re once again
And you are the---------re once again--|  (x2)

Solo starting at 3:12 (this has two lead guitars at once, so play the line below three 
times [G1], then finish with G2 below it.)
e:---------------------------14~----10~----8~-7~-|
B:----10-12~s15~------10-12~---------------------|
G:-12--------------12----------------------------|
D:-----------------------------------------------|
A:-----------------------------------------------|
E:-----------------------------------------------| (x3)

G2  @3:39
e:------------------------10~-10-8-------14~-10~-10~-8~-7~-|
B:---------------10-12-------------12-10-------------------|
G:----9-11----12-------12----------------------------------|
D:-12------12----------------------------------------------|
A:---------------------------------------------------------|
E:---------------------------------------------------------|

G2  @4:08 fade to end
e:-------------------------15~-15s17-19-20-19-20-19-17-15~-:
B:---------------10-12b12----------------------------------:
G:----9-11----12-------------------------------------------:
D:-12------12----------------------------------------------:
A:---------------------------------------------------------:
E:---------------------------------------------------------:

e: -----------------------------------14~-----------:
B: ------------10-12--15-15-13-12--13-----15-13-12~-:
G: 12-12-12-12--------------------------------------:
D: -------------------------------------------------:
A: -------------------------------------------------:
E: -------------------------------------------------:
Добавлено: 16.10.2013
Другие материалы по этой песне:
  • Аккорды и текст

Страница создана 16.10.2013
http://primanota.ru/damon-and-naomi/and-you-are-there-chords.htm
Привет, Гость.
Предлагаем пройти революционный курс по гитаре.
Подарок от PrimaNota.Ru, забирай!