PrimaNota.ru - самый крупный в мире бесплатный архив песенных текстов, аккордов, табулатур и нот


Damning Well - Awakening - таба, видео

Регистрация Запомнить меня
Войти через:  Facebook Google Twitter Vk Yandex Mail.ru

Damning Well - Awakening - таба, видео

Печатать
Просмотров: 104
Tabbed by: GrUnGe SpOnGe

Damning Well (featuring Richard Patrick, Wes Borland, Danny Lohner and Josh Freese)
Awakening (off ‘Underworld' Soundtrack – 2003)

STANDARD TUNING (EADGBE) ~ 2 GUITARS


INTRO/CHORUS RIFF [Guitar 1 with distortion]:

E---------------------------------------------------------------------------|
B---------------------------------------------------------------------------|
G---------------------------------------------------------------------------|
D---------------8---------------------------------8-------------------------|
A-7---------------------------------7---------------------------------------|
E----8-8-8-8----8-8-9-9-8-8-----8-8-8-8----8-8-9-9-8-8----------------------|

E---------------------------------------------------------------------------|
B---------------------------------------------------------------------------|
G---------------------------------------------------------------------------|
D---------------8-----------------------------------------------------------|
A-7---------------------------------13--13--13-13-13--13-13-8-8-------------|
E----8-8-8-8----8-8-9-9-8-8--11--11--11-11-11--11-11-6-6--------------------|


2nd INTRO PART/CHORUS RIFF [Drums enter, Guitar 2 with distortion]:

E---------------------------------------------------------------------------|
B---------------------------------------------------------------------------|
G-9--5-5-5-5-15--5-5-6-6-5-5-5--9--5-5-5-5-15--5-5-6-6-5-5-5----------------|
D---------------------------------------------------------------------------|
A-7--3-3-3-3-13--3-3-4-4-3-3-3--7--3-3-3-3-13--3-3-4-4-3-3-3----------------|
E---------------------------------------------------------------------------|

E---------------------------------------------------------------------------|
B---------------------------------------------------------------------------|
G-9--5-5-5-5-15--5-5-6-6-5-5-5--8--8--8-8-8--8-8-3-3------------------------|
D---------------------------------------------------------------------------|
A-7--3-3-3-3-13--3-3-4-4-3-3-3--6--6--6-6-6--6-6-1-1------------------------|
E---------------------------------------------------------------------------|


VERSES [Guitar 1 on clean]:

E---------------------------------------------------------------------------|
B---------------------------------------------------------------------------|
G---------------------------------------------------------------------------|
D---------------------------------------------------------------------------|
A-----10----10-------10-----------------------------------------------------|
E--8------8----11--8-----11-11-11-11----------------------------------------|


VERSES [Guitar 2 on clean with chorus]:

E---------------------------------------------------------------------------|
B------------------------13--11-13------11----------------------------------|
G--------------------------------------12-----------------------------------|
D-------------------------------------------------13------------------------|
A---------------------------------------------------------------------------|
E---------------------------------------------------------------------------|


BREAKDOWN [Guitar 1 and 2 on distortion]:

E---------------------------------------------------------------------------|
B---------------------------------------------------------------------------|
G--8--8----8--8--8----------------------------------------------------------|
D--8--8----8--8--8----------------------------------------------------------|
A--6--6----6--6--6----------------------------------------------------------|
E---------------------------------------------------------------------------|

E---------------------------------------------------------------------------|
B---------------------------------------------------------------------------|
G---------------------------------------------------------------------------|
D-5-5-5-5--5-6-5-5----5-5-6-5--5-5-5-5--------------------------------------|
A-3-3-3-3--3-4-3-3----3-3-4-3--3-3-3-3--------------------------------------|
E---------------------------------------------------------------------------|


OUTRO: Play Chorus.
Добавлено: 15.05.2012
Другие материалы по этой песне:
  • Аккорды и текст

Страница создана 15.05.2012
http://primanota.ru/damning-well/awakening-chords.htm
Привет, Гость.
Предлагаем пройти революционный курс по гитаре.
Подарок от PrimaNota.Ru, забирай!