PrimaNota.ru - самый крупный в мире бесплатный архив песенных текстов, аккордов, табулатур и нот


Damned - Sick Of This And That - текст песни, таба, видео

Регистрация Запомнить меня
Войти через:  Facebook Google Twitter Vk Yandex Mail.ru

Damned - Sick Of This And That - текст песни, таба, видео

Печатать
Просмотров: 120
The Damned
Sick of this and that
The Black album

 ^ BEND
(2) HOLD


E----------------------------------------------------|
B----------------------------------------------------|
G----------------------------------------------------|
D----------------------------------------------------|
A--------2-2--2----6-6--6----7-7-7---9-9-9-----------|
E--------0-0--0----4-4--4----5-5-5---7-7-7-----------|

E-----------------------------------------------|
B-----------------------------------------------|
G------6---66---6---66----6---66-6--4(4)--------|
D------6---66---6---66----6---66-6--4(4)--------|
A------4---44---4---44----4---44-4--2(2)    X4--|               HOLD B CHORD ON THE LAST TIME
E-----------------------------------------------|

E---------------------------------------------------|
B---------------------------------------------------|
G---------------------------------------------------|
D------------8-9-8-------4--------------------------|
A------------6-7-6-------2---------7-9-11-----9-----|
E----------------------------------5-7--9-----7-----|


P.M.
E---------------------------------------------------------------|
B---------------------------------------------------------------|
G---------------------------------------------------------------|
D---4-4-4-4-4--5-5-5-5-5-6-6-6-6-6---6^-------------------------|
A---4-4-4-4-4--5-5-5-5-5-6-6-6-6-6---6^ ---6-5-4----------------|
E---2-2-2-2-2--3-3-3-3-3-4-4-4-4-4---4^----4-3-2----------------|
      _____________ P.M._______


SOLO
E-------------4^------5--7^-------------4^---0-------------7^--------|
B-----------------5^----------------------------5^---5---7-----------|
G--------------------------------------------------------------------|
D--------------------------------------------------------------------|
Добавлено: 15.03.2012
Другие материалы по этой песне:
  • Аккорды и текст

Страница создана 15.03.2012
http://primanota.ru/damned/sick-of-this-and-that-chords.htm
Привет, Гость.
Предлагаем пройти революционный курс по гитаре.
Подарок от PrimaNota.Ru, забирай!