PrimaNota.ru - самый крупный в мире бесплатный архив песенных текстов, аккордов, табулатур и нот


Damn Yankees - Silence Is Broken - аккорды и текст, таба, видео

Регистрация Запомнить меня
Войти через:  Facebook Google Twitter Vk Yandex Mail.ru

Damn Yankees - Silence Is Broken - аккорды и текст, таба, видео

Печатать
Просмотров: 267
Silence Is Broken
Damn Yankees
		   SILENCE IS BROKEN
                           As recorded by Damn Yankees
                     (From the 1992 Album DON'T TREAD ON ME)

Words and Music by Damn Yankees
Arranged by Damn Yankees
Transcribed by C Thomas

         (Dm)                 (Bb)                 (Gm)                  (C)
      x 5 7 7 6 5          6 8 8 7 6 6          3 5 5 3 3 3          x 3 5 5 5 x

         Bb/F                  Dm                   F5                   C5
      x x 3 3 3 1          x x 0 2 3 1         x 8 10 10 x x        8 10 10 x x x

          Bb5                   D                   G5                  C5III
      6 8 8 x x x          x x 0 2 3 2          3 x 0 0 3 3          x 3 5 5 x x

          B5                   A5                   F5I                  C#5
      x 2 4 4 x x          x 0 2 2 x x          1 3 3 x x x          x 4 6 6 x x

         Bb5I
      x 1 3 3 x x

Gtr I (E A D G B E) - 'Dist.'
Gtr II (E A D G B E) - 'Clean Acous.'
Gtr III (E A D G B E) - 'Dist.'
Gtr IV (E A D G B E) - 'Dist.'
Gtr V (E A D G B E) - 'Violin'

        Intro
  Q=86
         (Dm)   (Bb)     (Gm)      (C)
 4/4
         Gtr I
         ~~     ~~
  Q.     Q.   E Q.   E   E E a E E E E a E E
|------|---------------|---------------------|
|------|---------------|---------------------|
|------|---------------|---------------------|
|------|---------------|-----3s5-3-----------|
|------|-5-------------|-----------7---7s8-7-|
|------|------5-6----5-|-3-6---------5-------|


  (Dm)   (Bb)     (Gm)      (C)
  ~~     ~~
  Q.   E Q.   E   E E a E E E E a E E
|---------------|-----------------------|
|---------------|-----------------------|
|---------------|-----------------------|
|---------------|-----3s5-3-------------|
|-5-------------|-----------7---7s8-7---|
|------5-6----5-|-3-6---------5---------|


  (Dm)          (Bb(Gm)      (C)         (Dm)   (Bb)     (Gm)      (C)
  ~~     ~~                              ~~     ~~
                                                                         |-3-|
  Q.   E Q.   E    E E a E E E E a E E   Q.   E Q.   E   E E a E E E E E S S S
|----------------|---------------------|---------------|-----------------------|
|----------------|---------------------|---------------|-----------------------|
|----------------|---------------------|---------------|-----------------------|
|----------------|-----3s5-3-----------|---------------|-----3s5-3-------------|
|-5--------------|-----------7---7s8-7-|-5-------------|-----------7---8-7h8p7-|
|------5-6----5--|-3-6---------5-------|------5-6----5-|-3-6---------5---------|


  (Dm)       Dm
  Gtr I
  W          +W
|----------|--------||
|----------|--------||
|----------|--------||
|----------|--------||
|-5--------|-(5)----||
|----------|--------||
|
| Gtr II
| W           W
|----------|-^1-----||
|----------|-^3-----||
|----------|-^2-----||
|----------|-^0-----||
|----------|--------||
|----------|--------||


 Verse
  Bb/F
  Gtr II
  S S S S +S  S S S S S S S +S  S S S   S S S S +S  S S S S S S S +S  S S S
|-1-----0-(0)-------1-----0-(0)-------|-1-----0-(0)-------1-----0-(0)-------|
|---3---------3-------3---------3-----|---3---------3-------3---------3-----|
|-----3---------3-------3---------3---|-----3---------3-------3---------3---|
|-----------------3-----------------3-|-----------------3-----------------3-|
|-------------------------------------|-------------------------------------|
|-------------------------------------|-------------------------------------|


  Dm
  S S S S +S  S S S S S S S +S  S S S   S S S S +S  S S S S S S S +S  S S S
|-1-----0-(0)-------1-----0-(0)-------|-1-----0-(0)-------1-----0-(0)-------|
|---3---------3-------3---------3-----|---3---------3-------3---------3-----|
|-----2---------2-------2---------2---|-----2---------2-------2---------2---|
|-----------------0-----------------0-|-----------------0-----------------0-|
|-------------------------------------|-------------------------------------|
|-------------------------------------|-------------------------------------|


  Bb/F
  S S S S +S  S S S S S S S +S  S S S   S S S S +S  S S S S S S S +S  S S S
|-1-----0-(0)-------1-----0-(0)-------|-1-----0-(0)-------1-----0-(0)-------|
|---3---------3-------3---------3-----|---3---------3-------3---------3-----|
|-----3---------3-------3---------3---|-----3---------3-------3---------3---|
|-----------------3-----------------3-|-----------------3-----------------3-|
|-------------------------------------|-------------------------------------|
|-------------------------------------|-------------------------------------|


  Dm
  S S S S +S  S S S S S S S +S  S S S   S S S S +S  S S S S S S S +S  S S S
|-1-----0-(0)-------1-----0-(0)-------|-1-----0-(0)-------1-----0-(0)-------|
|---3---------3-------3---------3-----|---3---------3-------3---------3-----|
|-----2---------2-------2---------2---|-----2---------2-------2---------2---|
|-----------------0-----------------0-|-----------------0-----------------0-|
|-------------------------------------|-------------------------------------|
|-------------------------------------|-------------------------------------|


  Bb/F
  Gtr II
  S  S S S +S  S S S S S S S +S  S S S
|-1------0-(0)-------1-----0-(0)-------|
|----3---------3-------3---------3-----|
|------3---------3-------3---------3---|
|------------------3-----------------3-|
|--------------------------------------|
|--------------------------------------|
|
| Gtr I
|                                 
| PM------------------------------------
| E     S  S  S E   S S E    S  S S S
|--------------------------------------|
|--------------------------------------|
|--------------------------------------|
|-8------8--8--8-8---8-8-8----8--8-8-8-|
|-8------8--8--8-8---8-8-8----8--8-8-8-|
|-6------6--6--6-6---6-6-6----6--6-6-6-|


  S  S S S +S  S S S S S S S  +S  S  S S
|-1------0-(0)-------1-----0--(0)----------||
|----3---------3-------3----------3--------||
|------3---------3-------3-----------3-----||
|------------------3-------------------3---||
|------------------------------------------||
|------------------------------------------||
|
|------------------------|
| E     S  S  S S S S S E     S  E
|------------------------------------------||
|------------------------------------------||
|------------------------------------------||
|-8------8--8--8-8-8-8-8-8--------8\-------||
|-8------8--8--8-8-8-8-8-8--------8\-------||
|-6------6--6--6-6-6-6-6-6---/18\-6\-------||


 1st & 2nd Pre-Chorus
  $
  F5    C5               Bb5     Bb5
  Gtr I
   q.    E  H       +E   S S E E  E  E  E  E
|----------------|---------------------------|
|----------------|---------------------------|
|-10-------------|---------------------------|
|-10----10-10----|-(10)\-8-8-8-8-10-10-10-10-|
|--8----10-10----|-(10)\-8-8-8-8-10-10-10-10-|
|--------8--8----|--(8)\-6-6-6-6--8--8--8--8-|


  F5    C5         Bb5   C5
   q.    E  H      Q  Q   E  E  E  E
|----------------|--------------------|
|----------------|--------------------|
|-10-------------|--------------------|
|-10----10-10----|-8--8--10-10-10-10\-|
|--8----10-10----|-8--8--10-10-10-10\-|
|--------8--8----|-6--6---8--8--8--8\-|


 Chorus
  D          G5         C5III      B5      A5
  Gtr I
  W          W          W          E E E E E E E E
|-2--------|-3--------|----------|-----------------|
|-3--------|-3--------|----------|-----------------|
|-2--------|-0--------|-5--------|-----4-------2---|
|-0--------|-0--------|-5--------|---4---4---2---2-|
|----------|-x--------|-3--------|-2-------0-------|
|----------|-3--------|----------|-----------------|


               To Coda
  D          G5         C5III      B5      A5
  W          W          W          E E E E E E E E
|-2--------|-3--------|----------|-----------------|
|-3--------|-3--------|----------|-----------------|
|-2--------|-0--------|-5--------|-----4-------2---|
|-0--------|-0--------|-5--------|---4---4---2---2-|
|----------|-x--------|-3--------|-2-------0-------|
|----------|-3--------|----------|-----------------|


  G5
  Gtr I
  W          +W
|-3--------|-(3)----||
|-3--------|-(3)----||
|-0--------|-(0)----||
|-0--------|-(0)----||
|-x--------|--------||
|-3--------|-(3)----||
|
| Gtr II
| W           W
|----------|-^3-----||
|----------|-^3-----||
|----------|-^0-----||
|----------|-^0-----||
|----------|--------||
|----------|--------||


 2nd Verse
  Bb/F
  Gtr II
  S  S S S +S  S S S S S S S +S  S S S   S  S S S +S  S S S S S S S +S  S S S
|-1------0-(0)-------1-----0-(0)-------|-1------0-(0)-------1-----0-(0)-------|
|----3---------3-------3---------3-----|----3---------3-------3---------3-----|
|------3---------3-------3---------3---|------3---------3-------3---------3---|
|------------------3-----------------3-|------------------3-----------------3-|
|--------------------------------------|--------------------------------------|
|--------------------------------------|--------------------------------------|
|
| Gtr I
| PM----------------------------------------------------------------------|
| E     S  E    E   S S E    S  S E     E     S  E    E   S S E    S  S E
|--------------------------------------|--------------------------------------|
|--------------------------------------|--------------------------------------|
|--------------------------------------|--------------------------------------|
|-8------8--8----8---8-8-8----8--8-8---|-8------8--8----8---8-8-8----8--8-8---|
|-8------8--8----8---8-8-8----8--8-8---|-8------8--8----8---8-8-8----8--8-8---|
|-6------6--6----6---6-6-6----6--6-6---|-6------6--6----6---6-6-6----6--6-6---|


  Dm
  S  S S S +S  S S S S S S S +S  S S S   S  S S S +S  S S S S S S S +S  S S S
|-1------0-(0)-------1-----0-(0)-------|-1------0-(0)-------1-----0-(0)-------|
|----3---------3-------3---------3-----|----3---------3-------3---------3-----|
|------2---------2-------2---------2---|------2---------2-------2---------2---|
|------------------0-----------------0-|------------------0-----------------0-|
|--------------------------------------|--------------------------------------|
|--------------------------------------|--------------------------------------|
|
| PM----------------------------------------------------------------------|
| E     S  E    E   S S E    S  S E     E     S  E    E   S S E    S  S E
|--------------------------------------|--------------------------------------|
|--------------------------------------|--------------------------------------|
|-7------7--7----7---7-7-7----7--7-7---|-7------7--7----7---7-7-7----7--7-7---|
|-7------7--7----7---7-7-7----7--7-7---|-7------7--7----7---7-7-7----7--7-7---|
|-5------5--5----5---5-5-5----5--5-5---|-5------5--5----5---5-5-5----5--5-5---|
|--------------------------------------|--------------------------------------|


  Bb/F
  S  S S S +S  S S S S S S S +S  S S S
|-1------0-(0)-------1-----0-(0)-------|
|----3---------3-------3---------3-----|
|------3---------3-------3---------3---|
|------------------3-----------------3-|
|--------------------------------------|
|--------------------------------------|
|
| PM------------------------------------
| E     S  E    E   S S E    S  S E
|--------------------------------------|
|--------------------------------------|
|--------------------------------------|
|-8------8--8----8---8-8-8----8--8-8---|
|-8------8--8----8---8-8-8----8--8-8---|
|-6------6--6----6---6-6-6----6--6-6---|


                       D.S. al Coda
  S  S S S +S  S S S S S S S +S  S S  S
|-1------0-(0)-------1-----0-(0)--------||
|----3---------3-------3---------3------||
|------3---------3-------3---------3----||
|------------------3------------------3-||
|---------------------------------------||
|---------------------------------------||
|
|----------------------------------|
| E     S  E    E   S S E    S  S E
|---------------------------------------||
|---------------------------------------||
|---------------------------------------||
|-8------8--8----8---8-8-8----8--8-8\---||
|-8------8--8----8---8-8-8----8--8-8\---||
|-6------6--6----6---6-6-6----6--6-6\---||


  &
  C5III
  Gtr I
  W                W
|----------------|--------------------------|
|----------------|--------------------------|
|-5--------------|--------------------------|
|-5--------------|--------------------------|
|-3--------------|--------------------------|
|----------------|--------------------------|
|
| Gtr III
| H    Q  E   E    S. S. Q.   S. S. S. S. S
|----------------|--------------------------|
|----------------|--------------------------|
|----------------|--------------------------|
|----------------|--------------------------|
|----------------|-3--2--1----1--0----------|
|-----------/18\-|------------------4--3--2-|


  F5I                  C#5                Bb5I
  Gtr II
  E E E E E S S    E E E E Q      E E E E Q
|-8--6--5--6--8------|------------------|------------------||
|---------------6-8--|-9--8--6--8--9----|-6--4--3--4--6----||
|--------------------|------------------|------------------||
|--------------------|------------------|------------------||
|--------------------|------------------|------------------||
|--------------------|------------------|------------------||
|
| Gtr III
| W                    W                  W
|--------------------|------------------|------------------||
|--------------------|------------------|------------------||
|--------------------|-6----------------|-3----------------||
|-3------------------|-6----------------|-3----------------||
|-3------------------|-4----------------|-1----------------||
|-1------------------|------------------|------------------||


 Guitar Solo
  F5I
  Gtr IV
  a a  E      +E   +E   +Q    S  S  S  +S   +S   S
|--------------------------------------------------|
|----------------------------16-16-----------------|
|-----15b17==(15)-(15)-(15)--------15r(15)-(15)-15-|
|---x----------------------------------------------|
|-x------------------------------------------------|
|--------------------------------------------------|
|
| Gtr II
|      W
|--------------------------------------------------|
|--------------------------------------------------|
|--------------------------------------------------|
|--------------------------------------------------|
|--------------------------------------------------|
|--------------------------------------------------|
|
| Gtr III
|      W
|--------------------------------------------------|
|--------------------------------------------------|
|--------------------------------------------------|
|------3-------------------------------------------|
|------3-------------------------------------------|
|------1-------------------------------------------|


          ~~~~~~~~~~~~~~~~~~~~~~
   E     +H                +Q      S  S
|---------------------------------------|
|---------------------------------------|
|-15b17r(15)b17===========(15)r---13-15-|
|---------------------------------------|
|---------------------------------------|
|---------------------------------------|
|
|  E            E E E       E  S  S
|--8-------------6--5--6--------8-------|
|----------------------------------6--8-|
|---------------------------------------|
|---------------------------------------|
|---------------------------------------|
|---------------------------------------|
|
|  W
|---------------------------------------|
|---------------------------------------|
|---------------------------------------|
|--3------------------------------------|
|--3------------------------------------|
|--1------------------------------------|


  C#5
  Gtr IV
                                                    ~~~~~~~~~~
                                   |------3------|
   E     +E         +E      S   S  S     +S      S  Q    +E
|-------------------------------------------------------------|
|-------------------------------------------------------------|
|-15b17r(15)b17r===(15)b17-13--15-15b17r(15)p===13------------|
|--------------------------------------------------15---(15)\-|
|-------------------------------------------------------------|
|-------------------------------------------------------------|
|
| Gtr II
|  E           E          E               E       Q
|-------------------------------------------------------------|
|--9------------8-----------6----------------8--------9-------|
|-------------------------------------------------------------|
|-------------------------------------------------------------|
|-------------------------------------------------------------|
|-------------------------------------------------------------|
|
| Gtr III
|  W
|-------------------------------------------------------------|
|-------------------------------------------------------------|
|--6----------------------------------------------------------|
|--6----------------------------------------------------------|
|--4----------------------------------------------------------|
|-------------------------------------------------------------|


  Bb5I
          ~~~
   S      E     +Q       S     S   S     S  S  S  S  S
|------------------------------13-----------------------|
|-16b18==16-----(16)r----16b18-----16b18-16-13----------|
|----------------------------------------------15-13-15-|
|-------------------------------------------------------|
|-------------------------------------------------------|
|-------------------------------------------------------|
|
|  E        E       E        E           Q
|-------------------------------------------------------|
|--6---------4--------3---------4------------6----------|
|-------------------------------------------------------|
|-------------------------------------------------------|
|-------------------------------------------------------|
|-------------------------------------------------------|
|
|  W
|-------------------------------------------------------|
|-------------------------------------------------------|
|--3----------------------------------------------------|
|--3----------------------------------------------------|
|--1----------------------------------------------------|
|-------------------------------------------------------|


  F5I
                        ~~
   |----3-----|
   S     +S   S  S  S   E  S   S  S  S     S  S S  S     S  S
|-----------------------------------------13-13---------13-13-|
|-------------------------13-----13-16b18---------16b18-------|
|-15b17r(15)p13----13---------15------------------------------|
|---------------15-----15-------------------------------------|
|-------------------------------------------------------------|
|-------------------------------------------------------------|
|
|  E               E     E        E         Q
|-------------------------------------------------------------|
|-------------------------------------------------------------|
|--5----------------3------2---------3----------5-------------|
|-------------------------------------------------------------|
|-------------------------------------------------------------|
|-------------------------------------------------------------|
|
|  W
|-------------------------------------------------------------|
|-------------------------------------------------------------|
|-------------------------------------------------------------|
|--3----------------------------------------------------------|
|--3----------------------------------------------------------|
|--1----------------------------------------------------------|


   S     S  S  S     S  S  S     S  S  S     S  S     S  S     S  S
|-------13-13-------13-13-------13-13-------------------------------|
|-16b18-------16b18-------16b18-------16b18-13-------16-16b18-13-16-|
|----------------------------------------------15b17----------------|
|-------------------------------------------------------------------|
|-------------------------------------------------------------------|
|-------------------------------------------------------------------|
|
|  E          E          E          E             E        S  S
|--8-----------6-----------5-----------6--------------8-------------|
|--------------------------------------------------------------6--8-|
|-------------------------------------------------------------------|
|-------------------------------------------------------------------|
|-------------------------------------------------------------------|
|-------------------------------------------------------------------|
|
|  W
|-------------------------------------------------------------------|
|-------------------------------------------------------------------|
|-------------------------------------------------------------------|
|--3----------------------------------------------------------------|
|--3----------------------------------------------------------------|
|--1----------------------------------------------------------------|


  C#5
                                                               |----3-----|
   S     S  S  S     S  S  S     S  S  S     S  S     S  S     S     +S   S
|-------13-13-------13-13-------13-13---------------------------------------|
|-16b18-------16b18-------16b18-------16b18-13-------16-16b18---------------|
|----------------------------------------------15b17----------15b17r(15)p13-|
|---------------------------------------------------------------------------|
|---------------------------------------------------------------------------|
|---------------------------------------------------------------------------|
|
|  E          E          E          E             Q
|---------------------------------------------------------------------------|
|--9-----------8-----------6-----------8--------------9---------------------|
|---------------------------------------------------------------------------|
|---------------------------------------------------------------------------|
|---------------------------------------------------------------------------|
|---------------------------------------------------------------------------|
|
|  W
|---------------------------------------------------------------------------|
|---------------------------------------------------------------------------|
|--6------------------------------------------------------------------------|
|--6------------------------------------------------------------------------|
|--4------------------------------------------------------------------------|
|---------------------------------------------------------------------------|


  Bb5I
                               ~~~~~~~~
                 |----3-----|
   S   S  S  S   S     +S   S  E   +H
|-----------13--18b20r(18)p15----------------||
|--------16-------------------18--(18)-------||
|-----13-------------------------------------||
|-15-----------------------------------------||
|--------------------------------------------||
|--------------------------------------------||
|
|  E        E                E      E Q
|--------------------------------------------||
|--6---------4-----------------3-------4--6--||
|--------------------------------------------||
|--------------------------------------------||
|--------------------------------------------||
|--------------------------------------------||
|
|  W
|--------------------------------------------||
|--------------------------------------------||
|--3-----------------------------------------||
|--3-----------------------------------------||
|--1-----------------------------------------||
|--------------------------------------------||


 Prelude
  Bb/F
  Gtr II
   S  S S S +S  S S S S S S S +S  S S S
|--1------0-(0)-------1-----0-(0)-------|
|-----3---------3-------3---------3-----|
|-------3---------3-------3---------3---|
|-------------------3-----------------3-|
|---------------------------------------|
|---------------------------------------|
|
| Gtr V
|   
|  ~~~~~~~~~~~~~~~~~~~~~~~~~~~~~~~~~~~~~~
|  W
|---------------------------------------|
|-18------------------------------------|
|---------------------------------------|
|---------------------------------------|
|---------------------------------------|
|---------------------------------------|
|
| Gtr III
| +W
|---------------------------------------|
|---------------------------------------|
|-(3)-----------------------------------|
|-(3)-----------------------------------|
|-(1)-----------------------------------|
|---------------------------------------|


    S  S S S +S  S S S S S S S +S  S S S
|---1------0-(0)-------1-----0-(0)-------|
|------3---------3-------3---------3-----|
|--------3---------3-------3---------3---|
|--------------------3-----------------3-|
|----------------------------------------|
|----------------------------------------|
|
|~~~~~~
|  +W
|----------------------------------------|
|-(18)-----------------------------------|
|----------------------------------------|
|----------------------------------------|
|----------------------------------------|
|----------------------------------------|
|
|   >
|  +W
|----------------------------------------|
|----------------------------------------|
|--(3)-----------------------------------|
|--(3)-----------------------------------|
|--(1)-----------------------------------|
|----------------------------------------|


  Dm
   S S S S +S  S S S S S S S +S  S S S
|--1-----0-(0)-------1-----0-(0)-------|
|----3---------3-------3---------3-----|
|------2---------2-------2---------2---|
|------------------0-----------------0-|
|--------------------------------------|
|--------------------------------------|
|
|  ~~~~~~~~~~~~~~~~~~~~~~~~~~~~~~~~~~~~~
|  W
|--------------------------------------|
|--------------------------------------|
|-14-----------------------------------|
|--------------------------------------|
|--------------------------------------|
|--------------------------------------|
|  W
|
|  W
|--------------------------------------|
|--------------------------------------|
|--------------------------------------|
|--------------------------------------|
|--------------------------------------|
|--------------------------------------|


    S  S S S +S  S S S  S S S S +S  S S S
|---1------0-(0)--------1-----0-(0)-------|
|------3---------3--------3---------3-----|
|--------2---------2--------2---------2---|
|--------------------0------------------0-|
|-----------------------------------------|
|-----------------------------------------|
|
|~~~~~~~~~~~~~~~~~~~~~~~~~~~~~~~~~~~
|   Q         Q         Q        Q
|--17-------------------------------------|
|------------18--------15-----------------|
|-(14)--------------------------14--------|
|-----------------------------------------|
|-----------------------------------------|
|-----------------------------------------|
|  +W
|
|   W
|-----------------------------------------|
|-----------------------------------------|
|-----------------------------------------|
|-----------------------------------------|
|-----------------------------------------|
|-----------------------------------------|


  Bb/F
   S S S S +S  S S S S S S S +S  S S S
|--1-----0-(0)-------1-----0-(0)-------|
|----3---------3-------3---------3-----|
|------3---------3-------3---------3---|
|------------------3-----------------3-|
|--------------------------------------|
|--------------------------------------|
|
|  ~~~~~~~~~~~~~~~~~~~~~~~~~~~~~~~~~~~~~
|  W
|--------------------------------------|
|--------------------------------------|
|-15-----------------------------------|
|--------------------------------------|
|--------------------------------------|
|--------------------------------------|
|
|  W
|--------------------------------------|
|--------------------------------------|
|--------------------------------------|
|--------------------------------------|
|--------------------------------------|
|--------------------------------------|


    S  S S S +S  S S S S S S S +S  S S  S
|---1------0-(0)-------1-----0-(0)--------||
|------3---------3-------3---------3------||
|--------3---------3-------3---------3----||
|--------------------3------------------3-||
|-----------------------------------------||
|-----------------------------------------||
|
|   >
|~~~~~~
|  +W
|-----------------------------------------||
|-----------------------------------------||
|-(15)------------------------------------||
|-----------------------------------------||
|-----------------------------------------||
|-----------------------------------------||
|
|    
|   E    E    E    E   E   E    E    E
|-----------------------------------------||
|-----------------------------------------||
|-----------------------------------------||
|---8----8----8----8---8---8----8----8\---||
|---8----8----8----8---8---8----8----8\---||
|---6----6----6----6---6---6----6----6\---||


 Chorus
  D          G5         C5III      B5      A5
  Gtr III
  W          W          W          E E E E E E E E
|-2--------|-3--------|----------|-----------------|
|-3--------|-3--------|----------|-----------------|
|-2--------|-0--------|-5--------|-----4-------2---|
|-0--------|-0--------|-5--------|---4---4---2---2-|
|----------|-x--------|-3--------|-2-------0-------|
|----------|-3--------|----------|-----------------|


  D          G5         C5III      B5      A5
  W          W          W          E E E E E E E E
|-2--------|-3--------|----------|-----------------|
|-3--------|-3--------|----------|-----------------|
|-2--------|-0--------|-5--------|-----4-------2---|
|-0--------|-0--------|-5--------|---4---4---2---2-|
|----------|-x--------|-3--------|-2-------0-------|
|----------|-3--------|----------|-----------------|


  D                   G5                  C5III            B5      A5
  Gtr III
  W                   W                   W                E E E E E E E E
|-2-----------------|-3-----------------|----------------|-------------------|
|-3-----------------|-3-----------------|----------------|-------------------|
|-2-----------------|-0-----------------|-5--------------|-----4-------2-----|
|-0-----------------|-0-----------------|-5--------------|---4---4---2---2---|
|-------------------|-x-----------------|-3--------------|-2-------0---------|
|-------------------|-3-----------------|----------------|-------------------|
|
| Gtr IV
|                                                     ~
| E E E E E E E S S   E E E E E E E S S   E E E E E E Q    E E E E E E E E
|-------------------|-------------------|----------------|-------------------|
|-------------------|-------------------|----------------|-------------------|
|-------------------|-------------------|----------------|-----4-------2-----|
|-------------------|-5-5-4-4-----------|----------------|---4---4---2---2---|
|-5-5-4-4-----------|---------7-7-5-5-3-|-3-3-2-2--------|-2-------0---------|
|---------7-7-5-5-3-|-------------------|---------5-5-3--|-------------------|


  D                   C5III            Bb5I              A5
  W                   W                W                 W
|-2-----------------|----------------|-----------------|------|
|-3-----------------|----------------|-----------------|------|
|-2-----------------|-5--------------|-3---------------|-2----|
|-0-----------------|-5--------------|-3---------------|-2----|
|-------------------|-3--------------|-1---------------|-0----|
|-------------------|----------------|-----------------|------|
|
| E E E E E E E S S   E E E E E E Q    E E E E E E E E   W
|-------------------|----------------|-----------------|------|
|-------------------|----------------|-----------------|------|
|-------------------|----------------|-----------------|------|
|-------------------|----------------|-----------------|------|
|-5-5-4-4-----------|-3-3-2-2--------|-1-1-------------|-0----|
|---------7-7-5-5-3-|---------5-5-3--|-----5-5-3-3-1-0-|------|


  A5
                         3/4
   >
  +W           W          H    Q
|------------|----------|---------||
|------------|----------|---------||
|-(2)--------|----------|---------||
|-(2)--------|----------|---------||
|-(0)--------|----------|---------||
|------------|----------|---------||
|
|  >
| +W           W          H    Q
|------------|----------|---------||
|------------|----------|---------||
|------------|----------|---------||
|------------|----------|---------||
|-(0)--------|----------|---------||
|------------|----------|---------||


 Outro
  (Dm)          (Bb(Gm)      (C)         (Dm)          (Bb(Gm)      (C)
 4/4
  Gtr I
  ~~     ~~                              ~~     ~~
  Q.   E Q.   E    E E a E E E E a E E   Q.   E Q.   E    E E a E E E E a E E
|----------------|---------------------|----------------|----------------------|
|----------------|---------------------|----------------|----------------------|
|----------------|---------------------|----------------|----------------------|
|----------------|-----3s5-3-----------|----------------|-----3s5-3------------|
|-5--------------|-----------7---7s8-7-|-5--------------|-----------7---7s8-7--|
|------5-6----5--|-3-6---------5-------|------5-6----5--|-3-6---------5--------|


  (Dm)          (Bb(Gm)      (C)         (Dm)          (Bb(Gm)      (C)
  ~~     ~~                              ~~     ~~
  Q.   E Q.   E    E E a E E E E a E E   Q.   E Q.   E    E E a E E E E a E E
|----------------|---------------------|----------------|---------------------||
|----------------|---------------------|----------------|---------------------||
|----------------|---------------------|----------------|---------------------||
|----------------|-----3s5-3-----------|----------------|-----3s5-3-----------||
|-5--------------|-----------7---7s8-7-|-5--------------|-----------7---7s8-7-||
|------5-6----5--|-3-6---------5-------|------5-6----5--|-3-6---------5-------||


 Outro Solo
  (Dm)                           (Bb)
  Gtr IV
   S     S  S S  S     S S  S     S   S     S  S     S     S  S     S
|-------10-10---------10---------10--------10-------------10-------10-|
|-13b15---------13b15------13b15-----13b15----13b15-13b15----13b15----|
|---------------------------------------------------------------------|
|---------------------------------------------------------------------|
|---------------------------------------------------------------------|
|---------------------------------------------------------------------|
|
| Gtr I
|  ~~~~~                          ~~~
|  Q.                    E        Q.                          E
|---------------------------------------------------------------------|
|---------------------------------------------------------------------|
|---------------------------------------------------------------------|
|---------------------------------------------------------------------|
|--5------------------------------------------------------------------|
|------------------------5--------6---------------------------5-------|


  (Gm)                              (C)
         ~~~~~
   S     E        S     S  S     S  S     S  S  S    S  S  S  S
|-----------------------10----------------10----------------------|
|-13b15-13b15-----13b15----13b15-10-13b15----13-10----------------|
|----------------------------------------------------12-10-12-----|
|-------------------------------------------------------------12--|
|-----------------------------------------------------------------|
|-----------------------------------------------------------------|
|
|  E          E a  E        E        E        E    a  E     E
|-----------------------------------------------------------------|
|-----------------------------------------------------------------|
|-----------------------------------------------------------------|
|---------------3s=5--------3-------------------------------------|
|------------------------------------7-------------7s=8-----7-----|
|--3----------6-------------------------------5-------------------|


  (Dm)                        (Bb)
               ~~~~~~~~~~~~~                       ~~~~~~~
                               |----3-----|
   S     +S   +E       +Q      S     +S   S  S     S  +Q
|-----------------------------------------------------------|
|-----------------------------------------------------------|
|-12b14r(12)-(12)b14==(12)r---12b14r(12)p10-12b14-12-(12)---|
|-----------------------------------------------------------|
|-----------------------------------------------------------|
|-----------------------------------------------------------|
|
|  ~~~~~~                      ~~~~~~
|  Q.                       E  Q.                         E
|-----------------------------------------------------------|
|-----------------------------------------------------------|
|-----------------------------------------------------------|
|-----------------------------------------------------------|
|--5--------------------------------------------------------|
|---------------------------5--6--------------------------5-|


  (Gm)                   (C)
   S  S  S  S    S  S  E  +S   S  S  S       S  S  S     S
|----------------------------------------------10-------10-|
|-------------------------------------------10----13b15----|
|-------12-10---------10-(10)----10-12b14------------------|
|-10-12---------10-12---------12---------------------------|
|----------------------------------------------------------|
|----------------------------------------------------------|
|
|  E     E    a  E     E   E      E       a  E     E
|----------------------------------------------------------|
|----------------------------------------------------------|
|----------------------------------------------------------|
|-------------3s=5-----3-----------------------------------|
|--------------------------7--------------7s=8-----7-------|
|--3-----6------------------------5------------------------|


  (Dm)                           (Bb)
   S     S S  S     S S  S     S  S   S     S  S     S  S  S  S
|-------10---------10---------10-10--13b15-10-------10-10-13-10-|
|-13b15------13b15------13b15-----------------13b15-------------|
|---------------------------------------------------------------|
|---------------------------------------------------------------|
|---------------------------------------------------------------|
|---------------------------------------------------------------|
|
|  ~~~~~                          ~~~
|  Q.                    E        Q.                       E
|---------------------------------------------------------------|
|---------------------------------------------------------------|
|---------------------------------------------------------------|
|---------------------------------------------------------------|
|--5------------------------------------------------------------|
|------------------------5--------6------------------------5----|


  (C)                       (C)
                    ~~~~~~~~~~~~~~~~~~~~~~~~~~~
   S     S  S  S    Q        e  e    +E   +E
|-------10-10------15b17====15-15---(15)r(15)\-|
|-13b15-------13-------------------------------|
|----------------------------------------------|
|----------------------------------------------|
|----------------------------------------------|
|----------------------------------------------|
|
|  E        E    a  E     E  E  E a   E    E
|----------------------------------------------|
|----------------------------------------------|
|----------------------------------------------|
|----------------3s=5-----3--------------------|
|----------------------------7----7s==8----7---|
|--3--------6-------------------5--------------|


  (Dm)                                   (Bb)       (Gm)      (C)
                                   ~~~~~~~~~~~
               |----3-----|
   S     E    S     +S   S  S     S      +H        W
|-15b17-15b17-15b17r(15)p13-15b17-15b17==(15)-----|---------------------*|
|-------------------------------------------------|---------------------*|
|-------------------------------------------------|---------------------*|
|-------------------------------------------------|---------------------*|
|-------------------------------------------------|---------------------*|
|-------------------------------------------------|---------------------*|
|
|  ~~~~~                                   ~~~~
|  Q.                        E             Q.   E   E E a E E E E a E E
|-------------------------------------------------|---------------------*|
|-------------------------------------------------|---------------------*|
|-------------------------------------------------|---------------------*|
|-------------------------------------------------|-----3s5-3-----------*|
|--5----------------------------------------------|-----------7---7s8-7-*|
|----------------------------5-------------6----5-|-3-6---------5-------*|


Duration Legend
---------------
W - whole; H - half; Q - quarter; E - 8th; S - 16th; T - 32nd; X - 64th; a - acciaccatura
+ - note tied to previous; . - note dotted; .. - note double dotted
Uncapitalized letters represent notes that are staccato (1/2 duration)
Irregular groupings are notated above the duration line
Duration letters will always appear directly above the note/fret number it represents the
duration for.  Duration letters with no fret number below them represent rests.  Multi-
bar rests are notated in the form Wxn, where n is the number of bars to rest for.  Low
melody durations appear below the staff

Tablature Legend
----------------
 h   - hammer-on
 p   - pull-off
 b   - bend
 pb  - pre-bend
 r   - bend release (if no number after the r, then release immediately)
 /\  - slide into or out of (from/to "nowhere")
 s   - legato slide
 S   - shift slide
 n>  - natural harmonic
[n]  - artificial harmonic
n(n) - tapped harmonic
 ~   - vibrato
 tr  - trill
 T   - tap
 TP  - trem. picking
 PM  - palm muting
\n/  - tremolo bar dip; n = amount to dip
 \n  - tremolo bar down
 n/  - tremolo bar up
/n\  - tremolo bar inverted dip
 =   - hold bend; also acts as connecting device for hammers/pulls
  >  - volume swell (louder/softer)
 x   - on rhythm slash represents muted slash
 o   - on rhythm slash represents single note slash

Misc Legend
-----------
 |  - bar
||  - double bar
||o - repeat start
o|| - repeat end
*|  - double bar (ending)
 :  - bar (freetime)
 $  - Segno
 &  - Coda
Tempo markers -  E  ./Q/Q./H  .> = BPM(8/16=s8/s16), where s8 = swing 8ths, s16 = swing 16ths     
Добавлено: 20.07.2013
Другие материалы по этой песне:

Страница создана 22.03.2012
http://primanota.ru/damn-yankees/silence-is-broken-chords.htm
Привет, Гость.
Предлагаем пройти революционный курс по гитаре.
Подарок от PrimaNota.Ru, забирай!