PrimaNota.ru - самый крупный в мире бесплатный архив песенных текстов, аккордов, табулатур и нот


Damien Jurado - Go First - аккорды и текст, видео

Регистрация Запомнить меня
Войти через:  Facebook Google Twitter Vk Yandex Mail.ru

Damien Jurado - Go First - аккорды и текст, видео

Печатать
Просмотров: 229
Новый альбом группы 'Черный Кузнец' по культовому сериалу 'Сверхъестественное'!
Go First
Damien Jurado
Artist: Damien Jurado
Song: Go First
Album: Caught in the Trees
Tabbed by: Don Tago
Email: recebedou@yahoo.com

Standard Tuning (Capo IV)

Chords Used:
     EADGBe
Am:  002210
D:   000232
Dm:  000231
F:   133211
G:   320033
G:  320000


Fill 1
  Am               G               D       
e|-----------------------------------------------------------------|
B|---0-1---1---0-------0---0---0-----0-3---3---3-----0-3---3---3---|
G|-2-----2-------0-0-2---2-------0-2-----2-------0-2-----2-------0-|

Fill 2
   Am              G               D
e|-----------------------------------------------------------------|
B|-----3---3---3-------3---3---3-------3---3---3-------3---3---3---|
G|-0-0---0---0---0-0-0---0---0---0-2-2---2---2---2-2-2---2---2---2-|

Intro: Am-G-D [x2]

Verse 1: (play chords along with Fill 1)
Am                G
    Are you all right? 
        D                                            Am
You're making me nervous with how much you leave me here
         G    D
Is it a sign? I don't feel like ever getting well 

Chorus 1: [2x] (play chords along with Fill 2)
Am               G
    Tell me the lie
        D 
You're taking your time over and over 

Verse 2: (use verse 1 chords and Fill 1)
My closest friends 
Live on the side of where you now divide 
Is it a sign if I don't feel like ever getting well? 

Chorus 2: [2x] (use chorus 1 chords and Fill 2)
Tell me the lie 
You're taking your time over and over

Solo:
-part 1
  Am               G               D                          [2x], then
e|-----------------------------------------------------------------|
B|-----3---3-1---1-----1---1-0---0---------------------------------|
G|-0-0---0---------0-0---0-------------2-2-----2-2-----2-2-----2-2-|
D|---------------------------------4-4-----4-4-----4-4-----4-4-----|

-part 2
   Am           F             Dm        F
e|--------------------------------------------|
B|--------------------------------------------|
G|----0--------------2---------0-0-0--2-------| [2x] then, 
D|--2---2---0------3---3-0-2------------3-3-3-|
A|--------3-----------------------------------|
E|--------------------------------------------|

-part 3
   Am G F   D     Am G F   D
e|------------------------------|
B|--1-0-------------1-0---------|
G|-------2---2-----------2---2--|

Verse 3: (use verse 1 chords and Fill 1)
You can go first. 
You're making me nervous with how much you leave me here. 
Is it a sign? I don't feel we're ever getting well 

Chorus 3: [4x] (use chorus 1 chords and Fill 2)
Tell me the lie 
You're taking your time over and over

Outro: solo-part 2 [2x], then solo-part 3
Добавлено: 25.04.2012
Другие материалы по этой песне:
  • Аккорды и текст

Страница создана 25.04.2012
http://primanota.ru/damien-jurado/go-first-chords.htm
Привет, Гость.
Предлагаем пройти революционный курс по гитаре.
Подарок от PrimaNota.Ru, забирай!