PrimaNota.ru - самый крупный в мире бесплатный архив песенных текстов, аккордов, табулатур и нот


Damien Dempsey - Bustin Outta Here - аккорды и текст, видео

Регистрация Запомнить меня
Войти через:  Facebook Google Twitter Vk Yandex Mail.ru

Damien Dempsey - Bustin Outta Here - аккорды и текст, видео

Печатать
Просмотров: 150
Уроки эстрадного вокала в Санкт-Петербурге
Bustin Outta Here
Damien Dempsey
Damien Dempsey
Bustin Outta Here
Almighty Love Album


(I wouldnt know the correct name of the chords used but Im just naming them like this.)


Acoustic

Chords used on Verses =

        E       F#m11     E7M       Cadd9     Cadd9II   B7            
E|------0---------0---------0---------0---------0--------0------|
B|------0---------0---------0---------3---------5--------0------|
G|------1---------2---------4---------0---------0--------3------|
D|------2---------4---------6---------2---------4--------1------|
A|------2---------4---------6---------3---------5--------3------|
E|------0---------2---------4---------x---------x--------x------|


Chords used on Chorus =

        A        B11      A7M        Am
E|------0---------0---------0---------0-------------------------|
B|------2---------4---------5---------1-------------------------|
G|------2---------4---------6---------2-------------------------|
D|------2---------4---------6---------2-------------------------|
A|------2---------0---------0---------0-------------------------|
E|------0---------x---------x---------x-------------------------|



Intro :


E - - - - + (hammer on the high E string, then the B & the G)



Verse I

E                    F#m11
Your walls seemed so high

E7M                F#m11
They never fail to terrify
 
E        F#m11    E7M      F#m11   
Built on fear and shame



Verse II

E                    F#m11            
Your well, misplaced words

E7M                    F#m11
They clip the wings of many birds

E      E7M          Cadd9 - - - - Cadd9II - - - - B7      
But my sky you wont tame


Chorus :

A           B11      A7M                  B11
Im crystal clear, im bustin outta here,im bustin outta here

A            B11           A7M                   B11
Ive faced my fears, now im bustin outta here, im bustin outta here

A           B11          A7M                Cadd9
I prized my years, so im bustin outta here, today


Verse II 
(just like Verse I)

Yes we must be strong
Its hard to shake off Babylon
But the chains are weak
When strength runs away, it returns another day
Then your tough as teak


Interlude

F#m11                           E7M                                          
I shadow box the day to keep the past at bay

     Am               E
but forgivness is the key

F#m11                       E7M  
If I hold to tight im gonna block the light 

        Am             E
and the sunrise I wont see

"I wanna feel the lovely warm sunrise in me !"





Hope its sounds alrite
Добавлено: 24.08.2013
Другие материалы по этой песне:
  • Аккорды и текст

Страница создана 24.08.2013
http://primanota.ru/damien-dempsey/bustin-outta-here-chords.htm
Привет, Гость.
Предлагаем пройти революционный курс по гитаре.
Подарок от PrimaNota.Ru, забирай!