PrimaNota.ru - самый крупный в мире бесплатный архив песенных текстов, аккордов, табулатур и нот


Dame - Trug Und Schein - таба, видео

Регистрация Запомнить меня
Войти через:  Facebook Google Twitter Vk Yandex Mail.ru

Dame - Trug Und Schein - таба, видео

Печатать
Просмотров: 79
Уроки эстрадного вокала в Санкт-Петербурге
-------------------------------------------------------------------------------
                             Trug  & Schein - Dame
-------------------------------------------------------------------------------
Tabbed by: Sludgegames 
https://www.youtube.com/channel/UCMA8T4iOdQRkraLvydkA59Q

Bei Fragen Youtube Pn.
Es ist kein Sonderlich guter Tab, aber ich hoffe er hat seinen Zweck erfüll. 

Tuning:

e|---------------------------------------------------------------------------|
B|--14br16--13-14-13-9-14-13-9-----------------------------------------------|
G|---------------------------------------------------------------------------|
D|-----------------------------13-15-----------------------------------------|
A|---------------------------------------------------------------------------|
E|---------------------------------------------------------------------------|

e|------------------------------11-8-----------------------------------------|
B|--14br16--13-14-13-9-14-13-9-----------------------------------------------|
G|---------------------------------------------------------------------------|
D|---------------------------------------------------------------------------|
A|---------------------------------------------------------------------------|
E|---------------------------------------------------------------------------|



************************************

| /   slide up
| \   slide down
| h   hammer-on
| p   pull-off
| ~   vibrato
| +   harmonic
| x   Mute note
| b   Bend
| pb  Pre-bend
| br  Bend release
| pbr Pre-bend release
| brb Bend release bend

************************************
Добавлено: 21.10.2015
Другие материалы по этой песне:
  • Аккорды и текст

Страница создана 21.10.2015
http://primanota.ru/dame/trug-und-schein-chords.htm
Привет, Гость.
Предлагаем пройти революционный курс по гитаре.
Подарок от PrimaNota.Ru, забирай!