PrimaNota.ru - самый крупный в мире бесплатный архив песенных текстов, аккордов, табулатур и нот


Damaged - Walk Blind And Burn In Every Step - аккорды и текст, таба, видео

Регистрация Запомнить меня
Войти через:  Facebook Google Twitter Vk Yandex Mail.ru

Damaged - Walk Blind And Burn In Every Step - аккорды и текст, таба, видео

Печатать
Просмотров: 124
Уроки эстрадного вокала в Санкт-Петербурге
Walk Blind And Burn In Every Step
Damaged
Title : Walk blind and burn in every step
        Artist : Damaged
         Album : Do not Spit
Transcribed by : By DimeBolt (dime_bolt@email.com)
================================================================================


Tune down 1 1/2 steps, then the low Db to B (B,Gb,B,E,Ab,Db)

   Intro
1||-----------------|-------------------|-----------------|-----------------||
2||-----------------|--------------A.H--|-----------------|-----------------||
3||-----------------|-------------------|-----------------|-------------7---||
4||-----------------|--------------|-----------------|-------------7---||
5||-0-0-0-0-0-0-0---|-0-0-0-0-0-0-------|-0-0-0-0-0-0-0---|-0-0-0-0-0-0-----||
6||-0-0-0-0-0-0-0---|-0-0-0-0-0-0-------|-0-0-0-0-0-0-0---|-0-0-0-0-0-0-----||


1||--------------------|------------------|---------------------|------------------||
2||--------------------|------------------|---------------------|------------------||
3||--------------------|------------------|------------9/109-8-|------------------||
4||-----6/7------------|-----6/7--------5-|-----6/7-------------|-----6/7--------5-||
5||-0--04/56--02/32-1-|-0--04/56--030503-|-0--04/56--07/-87-6-|-0--04/56--030503-||
6||-0--0---6--02/32-1-|-0--0---6--03050--|-0--0---6--0---------|-0--0---6--03050--||


1||-----------------|---------------------|-----------------|--------------------||
2||-----------------|---------------------|-----------------|--------------------||
3||-----------------|---------14-14-14-14-|-----------------|---------13/1413---||
4||-----------------|---------12-12-12-12-|-----------------|---------11/1211---||
5||---------6-6-----|---------------------|---------6-6-----|--------------------||
6||-0-0-0-0-----0-0-|-0-0-0-0-------------|-0-0-0-0-----0-0-|-0-0-0-0------------||


1||------------------|---------------------|------------------|--------------------||
2||------------------|---------------------|------------------|--------------------||
3||------------------|---------14-14-14-14-|------------------|---------13/1413---||
4||------------------|---------12-12-12-12-|------------------|---------11/1211---||
5||---------6666-----|---------------------|---------6666-----|--------------------||
6||-00000000----0000-|-00000000------------|-00000000----0000-|-00000000-----------||


1||-----------------|-----------------||------------------|-----------------||
2||-----------------|-----------------||------------------|-----------------||
3||-----------------|-----------------||------------------|---------2---2---||
4||-----------------|-----------------||-0000006633330000-|-006633330---0---||
5||-0---------------|-0-----------0---||------------------|-----------------||
6||-0---0-0-0-6-3-0-|-0---0-6-3---0---||------------------|-----------------||

                                        Solo
1||-----------------|-----------------||-----------------|-----------------||
2||-----------------|-----------------||-----------------|-----------------||
3||-----------------|-----------------||-----------------|---------7/8-85-||
4||-----------------|-----------------||-----------------|-----------------||
5||-6---------------|-3-----3-----3---||-0---1-0---5-6-5-|-0---1-0-5/6-63-||
6||-6---0-0-0-6-3-0-|-3---0-3---0-3---||-0---1-0---5-6-5-|-0---1-0---------||


1||-----------------|-----------------||-----||
2||-----------------|-----------------||-----||
3||-----------------|-----------------||-----||
4||-----------------|-----------------||-----||
5||-1-0---0-1---0-1-|---0-1-0-1-0-1-3-||-1-0-||
6||-1-0---0-1---0-1-|---0-1-0-1-0-1-3-||-1-0-||
Добавлено: 06.08.2013
Другие материалы по этой песне:
  • Аккорды и текст

Страница создана 12.04.2012
http://primanota.ru/damaged/walk-blind-and-burn-in-every-step-chords.htm
Привет, Гость.
Предлагаем пройти революционный курс по гитаре.
Подарок от PrimaNota.Ru, забирай!