PrimaNota.ru - самый крупный в мире бесплатный архив песенных текстов, аккордов, табулатур и нот


Damaged - The Travellin Manic - аккорды и текст, таба, видео

Регистрация Запомнить меня
Войти через:  Facebook Google Twitter Vk Yandex Mail.ru

Damaged - The Travellin Manic - аккорды и текст, таба, видео

Печатать
Просмотров: 136
The Travellin Manic
Damaged
Title : The Travellin Manic
        Artist : Damaged
         Album : Do not Spit
Transcribed by : By DimeBolt (dime_bolt@email.com)
================================================================================


Tune down 1 1/2 steps (Db,Gb,B,E,Ab,Db)

1||---------------------||------------------|------------------|------------------|
2||---------------------||------------------|------------------|------------------|
3||---------------------||------------------|------------------|------------------|
4||-2-------1-2-------1-||------------------|------------------|------------------|
5||-2-3-4-5-1-2-3-4-5-1-||---------77777777-|---------88888888-|---------77777777-|
6||---3-4-5-----3-4-5---||-00000055---------|-00000055---------|-00000055---------|


1||-----------------||-----||-----------------||------------||-----------------||
2||-----------------||-----||-----------------||------------||-----------------||
3||-----------------||-----||-----------------||------------||-----------------||
4||-----------------||-----||-----455---------||-----455---||-----455---------||
5||-9--8--7--6--5---||-4---||-2-2-233-5-5-444-||-2-2-233---||-2-2-233-555-4-4-||
6||-7--6--5--4--3---||-2---||-0-0-----3-3-222-||-0-0--------||-0-0-----333-2-2-||

                                                                                Last time
1||-----------------|---------------------|-----------------|-----------------||---------||
2||-----------------|---------------------|-----------------|-----------------||---------||
3||-----------------|---------------------|-----------------|-----------------||---------||
4||---------9-9-9-9-|---------10-10-10-10-|---------9-9-9-9-|-----------------||---------||
5||-2-2-2-0-7-7-7-7-|-2-2-2-0--8--8--8--8-|-2-2-2-0-7-7-7-7-|-9--8--7--6--5---||-5-5-444-||
6||-0-0-0-----------|-0-0-0---------------|-0-0-0-----------|-7--6--5--4--3---||-3-3-222-||

   Slower
1||----------||-------------------|-----------------|-------------------|-----------------||
2||----------||-------------A.H---|-----------------|-------------A.H---|-----------------||
3||----------||----------------|---------4/5-5/6-|----------------|-----------------||
4||-5-----4--||---4-5-2-4-5-------|-4-5-2-4---------|---4-5-2-4-5-------|-4-5-2-4-5-2-5---||
5||-3--5--2--||-2-2-3-2-2-3-----2-|-2-3-2-2-2/3-3/4-|-2-2-3-2-2-3-----2-|-2-3-2-2-3-2-3---||
6||-3--3--2--||-0---------------0-|-----------------|-0---------------0-|-------------3---||

   Slow                        Fill 1           Fill 2        Fill 3
1||-----||-------------------||---------------||------------||-------------||
2||-----||-------------------||---------------||------------||-------------||
3||-----||-------------------||-----9/1010~---||------------||-------------||
4||-----||-3-----------------||---------------||-----89-----||----8789-----||
5||-2---||-3-----2---222-222-||--8p7----------||--878---7---||--87----7----||
6||-0---||-------0---000-000-||---------------||------------||-------------||

                              *Not sure
1||-----------------|------------------||-----------------|------------------||
2||-----------------|------------------||-----------------|------------------||
3||-----------------|------------------||-----------------|------------------||
4||-----------------|------------------||-----------------|------------------||
5||-2--253--2--253--|-2--253-------10--||-2--253--222253--|-2--253-------10--||
6||-0--031--0--031--|-0--031--31013--3-||-0--031--000031--|-0--031--31013--3-||
Добавлено: 23.02.2014
Другие материалы по этой песне:
  • Аккорды и текст

Страница создана 01.04.2012
http://primanota.ru/damaged/the-travellin-manic-chords.htm
Привет, Гость.
Предлагаем пройти революционный курс по гитаре.
Подарок от PrimaNota.Ru, забирай!