PrimaNota.ru - самый крупный в мире бесплатный архив песенных текстов, аккордов, табулатур и нот


Damaged Bug - Photograph - таба, видео

Регистрация Запомнить меня
Войти через:  Facebook Google Twitter Vk Yandex Mail.ru

Damaged Bug - Photograph - таба, видео

Печатать
Просмотров: 106
Уроки эстрадного вокала в Санкт-Петербурге
Hey, this is just easiest to play in Drop C because usually Thee Oh Sees plays in 
D-tuning, so this is basically
that. Anyhow, these notes are all from a synthesizer. I emulated it from an Octave pedal 
so it goes down an
octave for the bass, and ran it through a Big Muff to get that nasty tone. Enjoy.

Fuzz (Verse)
e|--------------------|
B|--------------------|
G|--------------------|
D|--------------------|
A|--------------------|
E|6-6-6-6-10-10-10-10-|

Fuzz (Chorus/Pre)
e|-----------------------------------|
B|-----------------------------------|
G|-----------------------------------|
D|-----------------------------------|
A|-------------------8-8-8-8-6-6-6-6-|
E|3-3-3-3-1-1-1-1 or ----------------|

-----------------------------------------------------------

Rhythm (Verse) *This part is real easy, just confuses me trying to make it on guitar. 
Sounds like this for me.*
e|------------------|
B|7-------13/11~~~~-|
G|------------------|
D|------------------|
A|6-----------------|
E|6~~~~~~~10~~~~~~~-|
^This is the part that follows exactly the bass.

Rhythm (Chorus/Pre)
E|------------|
B|------------|
G|------------|
D|15-------13-|
A|------------|
E|15-------13-|

Ping noise *I'm pretty sure the pattern changes, but those are the notes.*
e|------------------------|
B|------------13-13-13-13-|
G|13-13-13-13-------------|
D|------------------------|
A|------------------------|
E|------------------------|

Lead: (Chorus/Pre) *Clean chained notes. Also, these notes may slightly change in 
pattern within the song.*
e|-----18------------------18-20-18-|
B|18-21--21-18-----21-18-21---------|
G|------------20--------------------|
D|----------------------------------|
A|----------------------------------|
E|----------------------------------|

Bass: (Verse)
G|--------------------|
D|--------------------|
A|--------------------|
E|6-6-6-6-10-10-10-10-|

Bass: (Chorus/Pre)       *These notes have slightly different patterns throughout the chorus's(?).
G|-------------------------11-13-11---|
D|-----------------------11--------13-|
A|------------------------------------|
E|13-13-13-13-11-11-11-11-------------|

*The bass on the last verse or two ends of developing a bass line similar to the leads 
and the different synths.
Добавлено: 27.12.2015
Другие материалы по этой песне:
  • Аккорды и текст

Страница создана 27.12.2015
http://primanota.ru/damaged-bug/photograph-chords.htm
Привет, Гость.
Предлагаем пройти революционный курс по гитаре.
Подарок от PrimaNota.Ru, забирай!