PrimaNota.ru - самый крупный в мире бесплатный архив песенных текстов, аккордов, табулатур и нот


Dalis Car - Create And Melt - бас-таба, видео

Регистрация Запомнить меня
Войти через:  Facebook Google Twitter Vk Yandex Mail.ru

Dalis Car - Create And Melt - бас-таба, видео

Печатать
Просмотров: 73
Авторы музыки: Mick Karn
Авторы текста: Peter Murphy
Tabbed by: bassm99
E-mail: alanmatthews1966@yahoo.co.uk

Tuning: E, A, D, G

"Create And Melt" from the album "The Waking Hour" (1984)
Written by Murphy/Karn

Bass Starts: 0:32

Start: (0:32 - 0:42)

G|--------------------------------------------------------------------------|
D|---------------------------3----------------------------------------------|
A|-----1-----3-----1-----3-5---5--------------------------------------------|
E|--3-----3-----3-----3----------5-3----------------------------------------|

Repeat: (0:42 - 5:21)

G|--------------------------------------------------------------------------|
D|------------------------3-------------------------------------------------|
A|--1-----3-----1-----3-5---5-----------------------------------------------|
E|-----3-----3-----3----------5-3-------------------------------------------|

End: (5:21 - 5:24)

G|--------------------------------------------------------------------------|
D|--------------------------------------------------------------------------|
A|--1-----3-----------------------------------------------------------------|
E|-----3--------------------------------------------------------------------|
Добавлено: 05.06.2016
Другие материалы по этой песне:
  • Аккорды и текст

Страница создана 05.06.2016
http://primanota.ru/dalis-car/create-and-melt-chords.htm
Привет, Гость.
Предлагаем пройти революционный курс по гитаре.
Подарок от PrimaNota.Ru, забирай!