PrimaNota.ru - самый крупный в мире бесплатный архив песенных текстов, аккордов, табулатур и нот


Daita - Zenith - таба, видео

Регистрация Запомнить меня
Войти через:  Facebook Google Twitter Vk Yandex Mail.ru

Daita - Zenith - таба, видео

Печатать
Просмотров: 121
Zenith - Daita
Tabbed by:AzNKAMIKAZEJerryF

Add me at myspace.com/lighter509 xD

e|------9-10---------9-10-----9h7-9--------------9-10-----10-9-7------|
b|---10-----------10----------------10--------10----------------------|
g|-9------------9----------------------9----7-------------------------|
d|--------------------------------------------------------------------|
a|--------------------------------------------------------------------|
e|--------------------------------------------------------------------|

e|-12-7-10--9h10p9------------------------9-10----9-10----/17---------|
b|-----------------10-12---------------10---------------------17------|
g|-----------------------9----6-7----9--------------------------------|
d|--------------------------------------------------------------------|
a|--------------------------------------------------------------------|
e|--------------------------------------------------------------------|

e|-19-15-21-17-22-21p19 21---22b24---22-21-19-21-22-21----------------|
b|-----------------------------------------------------22----19-22----|
g|--------------------------------------------------------21----------|
d|--------------------------------------------------------------------|
a|--------------------------------------------------------------------|
e|--------------------------------------------------------------------|

e|------------------------------------------9-10----------9-10--------|
b|-14-15-/17-\15-14----------------------10------------10-------------|
g|-14-14-/16-\14-14--14h16--14---------9-------------9----------------|
d|-------------------14h16--14----------------------------------------|
a|--------------------------------------------------------------------|
e|--------------------------------------------------------------------|

e|-9h7-9--------------9-10------10-9-7-12-7-10--9h10p9----------------|
b|-------10--------10----------------------------------10-12----------|
g|----------9----7-------------------------------------------9----6-7-|
d|--------------------------------------------------------------------|
a|--------------------------------------------------------------------|
e|--------------------------------------------------------------------|

e|-h17p0h9---h16p0h10---h17p0h9---h16p0-------------------------------|
b|-------------------------------------h10---h17p0h10---h15p0h10h-----|
g|--------------------------------------------------------------------|
d|--------------------------------------------------------------------|
a|--------------------------------------------------------------------|
e|--------------------------------------------------------------------|

e|---------------------- ---------------------------------------------|
b|-14p0h10---h15p0h10-------------------------------------------------|
g|----------------------h9h14p9\7---h14p7\6h7-------------------------|
d|--------------------------------------------------------------------|
a|--------------------------------------------------------------------|
e|--------------------------------------------------------------------|

e|-h17p0h9---h16p0h10---h17p0h9---h16p0-------------------------------|
b|-------------------------------------h10---h17p0h10---h15p0h10h-----|
g|--------------------------------------------------------------------|
d|--------------------------------------------------------------------|
a|--------------------------------------------------------------------|
e|--------------------------------------------------------------------|

e|---------------------- ---------------------------------------------|
b|-14p0h10---h15p0h10-------------------------------------------------|
g|----------------------h9h14p9\7---h14p7\6h7-------------------------|
d|--------------------------------------------------------------------|
a|--------------------------------------------------------------------|
e|--------------------------------------------------------------------|

e|--------------------------------------------------------------------|
b|--------------------------------------------------------------------|
g|-h14p0h6---h12p0h7---h14p0h6---h12p0h7--- h14p0h6--- h14p0h7--------|
d|--------------------------------------------------------------------|
a|--------------------------------------------------------------------|
e|--------------------------------------------------------------------|

e|--------------------------------------------------------------------|
b|--------------------------------------------------------------------|
g|- h14p0h9--- h14p0h6--- h14p0h7--- h14p0h9---h14p0------------------|
d|--------------------------------------------------------------------|
a|--------------------------------------------------------------------|
e|--------------------------------------------------------------------|

e|--------------------------------------------------------------------|
b|--------------------------------------------------------------------|
g|--------------------------------------------------------------------|
d|-h7h14---p0h5h12---p0h7h14--- p0h5h12---p0h7h14---p0h5h12-----------|
a|--------------------------------------------------------------------|
e|--------------------------------------------------------------------|

e|--------------------------------------------------------------------|
b|---------------------------8/10-15p10-15/7-p10----*10---------------|
g|----------------------h7h12-----------------------------------------|
d|-p0h4h7---p4h7h12---p0----------------------------------------------|
a|--------------------------------------------------------------------|
e|--------------------------------------------------------------------|

e|-----17-21-19-22---21-19--------------------------------------------|
b|-/17---------------------22-------19b20--20b19-15-17-15-14-15-17----|
g|--------------------------------------------------------------------|
d|--------------------------------------------------------------------|
a|--------------------------------------------------------------------|
e|--------------------------------------------------------------------|

e|--------------------------------------------------------------------|
b|-----------19b20--19b20-19b20-19b20-19--17p15h17-15-14-15-17--------|
g|-16-14--------------------------------------------------------------|
d|----14--------------------------------------------------------------|
a|--------------------------------------------------------------------|
e|--------------------------------------------------------------------|

e|----------------------------------------------12-13-15p12-----------|
b|-------15-14-17-15---17b18---17p15-17-17b18--------------15p13------|
g|-16-14--------------------------------------------------------12----|
d|--------------------------------------------------------------------|
a|--------------------------------------------------------------------|
e|--------------------------------------------------------------------|

e|----------------------------------------15--------------------------|
b|-----------13b15b13---17b18-17-15-17-18----18-17----15---13--13/18--|
g|-10-9-9-10---------------------------------------17--------12-------|
d|--------------------------------------------------------------------|
a|--------------------------------------------------------------------|
e|--------------------------------------------------------------------|

e|-------12-13---------12-13---------12-13-15-------------------------|
b|----13------------13------------13------------15b16b15-13-15-15b16--|
g|-12------------12------------12-------------------------------------|
d|--------------------------------------------------------------------|
a|--------------------------------------------------------------------|
e|--------------------------------------------------------------------|

e|-------12-13---------12-13---------12-13-15-------------------------|
b|----13------------13------------13------------15b16b15-13-15-13-13--|
g|-12------------12------------12-------------------------------------|
d|--------------------------------------------------------------------|
a|--------------------------------------------------------------------|
e|--------------------------------------------------------------------|

e|--------------------------------------------------------------------|
b|-15b16b15-13-15-13-13-\11-11---15b16b15-13-15-13--15b16b15-13-15-13-|
g|--------------------------------------------------------------------|
d|--------------------------------------------------------------------|
a|--------------------------------------------------------------------|
e|--------------------------------------------------------------------|

e|------------------------------------------18-20---------------------|
b|-15b16b15-13-15-13---15b16b15-13----15-18---------------------------|
g|---------------------------------15---------------------------------|
d|--------------------------------------------------------------------|
a|--------------------------------------------------------------------|
e|--------------------------------------------------------------------|

e|-----------------------------------------------10-------------------|
b|-----------------7-8-9-10------------------------10-----------------|
g|-9b11b10b11\-------------9b11b9-7-9-7-9b11---------9b11b9-7-7-9b11--|
d|-----------------------------------------------------------9--------|
a|--------------------------------------------------------------------|
e|--------------------------------------------------------------------|

e|-----------------------------------10-12-10-12b14-10\----10--12b14--|
b|--------------------------10-11-12-------------------------10-------|
g|-9b11b9h7-7--------7-9s11-------------------------------------------|
d|---------9---9-7-9--------------------------------------------------|
a|--------------------------------------------------------------------|
e|--------------------------------------------------------------------|

e|-15b17-15p13-15-15b17-13------14------------------------------------|
b|-------------------------15------15-17-12-15-10-12----10------------|
g|---------------------------------------------------11----9s11-------|
d|--------------------------------------------------------------12----|
a|--------------------------------------------------------------------|
e|--------------------------------------------------------------------|

e|---------------------------------------------------12h14h15----------|
b|-----------------------------12h14h15------12h14h15------------------|
g|---------11h12h14----11h12h14----------------------------------------|
d|-12h14h16------------------------------------------------------------|
a|---------------------------------------------------------------------|
e|---------------------------------------------------------------------|

e|---------14h15h17-----------15h17h19------------17h19h21--22--------|
b|-14h15h17-----------15h17h19------------17h19h20--------------------|
g|--------------------------------------------------------------------|
d|--------------------------------------------------------------------|
a|--------------------------------------------------------------------|
e|--------------------------------------------------------------------|

e|-22-0-0-20-0-0-19-0------20-0-0-19-0-0-17-0----19-0-0-17-0-0-15-0---|
b|--------------------------------------------------------------------|
g|--------------------------------------------------------------------|
d|--------------------------------------------------------------------|
a|--------------------------------------------------------------------|
e|--------------------------------------------------------------------|

e|-17-0-0-15-0-0--------------------------------17p14-----------------|
b|---------------18------17b18b17---15h17p15---------17p15------------|
g|--------------------------------------------------------14----------|
d|--------------------------------------------------------------------|
a|--------------------------------------------------------------------|
e|--------------------------------------------------------------------|

e|-14-----------------------------------------------------------------|
b|-----------------15b17b15-----17b18-17p15-17-15---------------------|
g|----14s11--12-14----------------------------------------------------|
d|--------------------------------------------------------------------|
a|--------------------------------------------------------------------|
e|--------------------------------------------------------------------|

e|-------10----------12------------14-15-------14-15------14-15-17----|
b|-----11--11------13--13--------15----------15---------15------------|
g|---10------10--12------12----14----------14---------14--------------|
d|-12----------14-----------------------------------------------------|
a|--------------------------------------------------------------------|
e|--------------------------------------------------------------------|

e|----------------------------14-15------14-15-----14-15-17-----------|
b|-17b18b17-15-17-17b18-----15---------15--------15-------------------|
g|------------------------14---------14--------14---------------------|
d|--------------------------------------------------------------------|
a|--------------------------------------------------------------------|
e|--------------------------------------------------------------------|

e|-------------------------14-15------14-15-------14-15-17------------|
b|-17b18b17-15-17-15-----15---------15----------15--------------------|
g|---------------------14---------14----------14----------------------|
d|--------------------------------------------------------------------|
a|--------------------------------------------------------------------|
e|--------------------------------------------------------------------|

e|---------------------------14-15-------14-15-------14-15-17---------|
b|-17b18b17-15-17-17b18----15----------15----------15-----------------|
g|-----------------------14----------14----------14-------------------|
d|--------------------------------------------------------------------|
a|--------------------------------------------------------------------|
e|--------------------------------------------------------------------|

e|--------------------------------------------------------------------|
b|-17b18b17-15-17--15-15-----17b18b17-15-17-15-15s13-13---------------|
g|--------------------------------------------------------------------|
d|--------------------------------------------------------------------|
a|--------------------------------------------------------------------|
e|--------------------------------------------------------------------|

e|--------------------------------------------------------------------|
b|-17b18b17-15-17-15---17b18b17-15-17-15---17b18b17-15-17-15----------|
g|--------------------------------------------------------------------|
d|--------------------------------------------------------------------|
a|--------------------------------------------------------------------|
e|--------------------------------------------------------------------|

e|------------------------22------------------------------------------|
b|-17b18b17-15-17---19-20---------------------------------------------|
g|--------------------------------------------------------------------|
d|--------------------------------------------------------------------|
a|--------------------------------------------------------------------|
e|--------------------------------------------------------------------|

e|--------------------------------------------------------------------|
b|--------------------------------------------------------------------|
g|-7-7-7-----7p0--------7-7-7-----7p0--------7-7-7-----7p0------------|
d|-4-4-5-0h5-----5p0----4-4-5-0h5-----5p0----4-4-5-0h5-----5p0--------|
a|--------------------------------------------------------------------|
e|--------------------------------------------------------------------|

e|--------------------------------------------------------------------|
b|--------------------------------------------------------------------|
g|-7p0-------7p0-5p0-4p0-----------7-7-7-----7p0----------------------|
d|----5p0-7p0-----------5p0-7p0----4-4-5-0h5-----5p0------------------|
a|--------------------------------------------------------------------|
e|--------------------------------------------------------------------|

e|--------------------------------------------------------------------|
b|--------------------------------------------------------------------|
g|-7-7-7-----7p0-------7-7-7-----7p0-----7p0-------7p0-5p0-4p0--------|
d|-4-4-5-0h5-----5p0---4-4-5-0h5-----5p0----5p0-7p0-----------7p0-5p0-|
a|--------------------------------------------------------------------|
e|--------------------------------------------------------------------|

e|--------------------------------------------------------------------|
b|--------------------------------------------------------------------|
g|-7-7-7-----7p0--------7-7-7-----7p0--------7-7-7-----7p0------------|
d|-4-4-5-0h5-----5p0----4-4-5-0h5-----5p0----4-4-5-0h5-----5p0--------|
a|--------------------------------------------------------------------|
e|--------------------------------------------------------------------|

e|--------------------------------------------------------------------|
b|--------------------------------------------------------------------|
g|-7p0-------7p0-5p0-4p0-----------7-7-7-----7p0----------------------|
d|----5p0-7p0-----------5p0-7p0----4-4-5-0h5-----5p0------------------|
a|--------------------------------------------------------------------|
e|--------------------------------------------------------------------|

e|--------------------------------------------------------------------|
b|--------------------------------------------------------------------|
g|-7-7-7-----7p0-------7-7-7-----7p0-----7p0-------7p0-5p0-4p0--------|
d|-4-4-5-0h5-----5p0---4-4-5-0h5-----5p0----5p0-7p0-----------7p0-5p0-|
a|--------------------------------------------------------------------|
e|--------------------------------------------------------------------|

e|--------------------------------------------------------------------|
b|--------------------------------------------------------------------|
g|-5h7s9--7h9p7s5-7-5-4-5-4---4s2----2h4h5s7--5h7p5s4-5-4-------------|
d|--------------------------5-----------------------------7-5-4-5-7---|
a|--------------------------------------------------------------------|
e|--------------------------------------------------------------------|

e|--------------------------------------------------------------------|
b|--------------------------------------------------------------------|
g|--------------------------------------------------------------------|
d|-5-4----------------------------------------------------------------|
a|-----7-5-3-7-5------------------------------------------------------|
e|--------------------------------------------------------------------|
Добавлено: 22.07.2012
Другие материалы по этой песне:

Страница создана 12.04.2012
http://primanota.ru/daita/zenith-chords.htm
Привет, Гость.
Предлагаем пройти революционный курс по гитаре.
Подарок от PrimaNota.Ru, забирай!