PrimaNota.ru - самый крупный в мире бесплатный архив песенных текстов, аккордов, табулатур и нот


Daita - Triumphal Return - таба, видео

Регистрация Запомнить меня
Войти через:  Facebook Google Twitter Vk Yandex Mail.ru

Daita - Triumphal Return - таба, видео

Печатать
Просмотров: 94
Triumphal Return
Composition: Daita Itoh
Tabs: sergio1o3 (http://www.youtube.com/sergio1o3)

Symbols:
h  -  hammer on
p  -  pull off
b  -  bend string up
r  -  release bend
t  -  right hand tap
/  -  slide up
\  -  slide down
() -  harmonic


E--------------------7h8-8-8-8-7h8p7------------------------------------|
B-8h10-10-10-10-8-10-----------------8-8h10-10-10-10-8-7-7h8-7----------|
G--------------------------------------------------------------9-9h11-7-|
D-----------------------------------------------------------------------|
A-----------------------------------------------------------------------|
E-----------------------------------------------------------------------|

E--------------------7h8-8-10-8-7h8p7------------------------------------------|
B-8h10-10-10-10-8-10------------------8-8h10-10-10-10-8-7-7h8-7----------------|
G---------------------------------------------------------------9-7-7h9--------|
D-----------------------------------------------------------------------10-9-7-|
A------------------------------------------------------------------------------|
E------------------------------------------------------------------------------|

E--------------------7h8-10-12-8-7h8p7--------------------------------------------------|
B-8h10-10-10-10-8-10-------------------8-8h10-10-10-10-8-7-7h8p7------------------------|
G----------------------------------------------------------------9-7--------------------|
D--------------------------------------------------------------------10-9h10p9p7--------|
A--------------------------------------------------------------------------------10-9-7-|
E---------------------------------------------------------------------------------------|

E--------------------7h8-10-12-8-7h8p7--------------7-9-10-|
B-8h10-10-10-10-8-10-------------------8-8h10-10-10--------|
G----------------------------------------------------------|
D----------------------------------------------------------|
A----------------------------------------------------------|
E----------------------------------------------------------|


Chorus
E-17---17/19-15-17--15-14-14h15p14----------------17---17-t22p15-14-|
B----------------------------------17-15-15-14h15-------------------|
G-------------------------------------------------------------------|
D-------------------------------------------------------------------|
A-------------------------------------------------------------------|
E-------------------------------------------------------------------|

E-14h15-17-17-15-14-------------17----------17-15-14-------14\-/15-14-------|
B-------------------17-15-14h15----15-14h15----------17-17------------17-15-|
G---------------------------------------------------------------------------|
D---------------------------------------------------------------------------|
A---------------------------------------------------------------------------|
E---------------------------------------------------------------------------|

E-------17---------------15-14-------|
B-14h15----15-14h15-15---------17-15-|
G------------------------------------|
D------------------------------------|
A------------------------------------|
E------------------------------------|


E--------------------7h8-8-8-8-7h8p7-----------------------------------------------|
B-8h10-10-10-10-8-10-----------------8-8h10-10-10-10-8-7-8h10p8--------------------|
G---------------------------------------------------------------9-7----------------|
D-------------------------------------------------------------------10-9h10p9p7----|
A-------------------------------------------------------------------------------10-|
E----------------------------------------------------------------------------------|

E-------------|
B-------------|
G-------------|
D--------7-10-|
A-7-9-10------|
E-------------|

E--------------------7h8-10-12-8-7h8p7-----------------10-|
B-8h10-10-10-10-8-10-------------------8-8h10-8-7---10----|
G-------------------------------------------------7-------|
D---------------------------------------------------------|
A---------------------------------------------------------|
E---------------------------------------------------------|

E-15-14----------------------------------15-14---------------------14-15-17---17\-|
B-------17-17b19r17-15----------------15-------17-17b19r17-15---17----------------|
G-------------------------------14-16---------------------------------------------|
D----------------------14-16-17---------------------------------------------------|
A---------------------------------------------------------------------------------|
E---------------------------------------------------------------------------------|

E-------------------------------14-15-|
B-------------------------15-17-------|
G----------------14-16-18-------------|
D-17-16-14-16-17----------------------|
A-------------------------------------|
E-------------------------------------|


Chorus
E-17---17/19-15-17--15-14-14h15p14----------------17---17-t22p15-14-|
B----------------------------------17-15-15-14h15-------------------|
G-------------------------------------------------------------------|
D-------------------------------------------------------------------|
A-------------------------------------------------------------------|
E-------------------------------------------------------------------|

E-14h15-17-17-15-14-------------17----------17b19-17-15-14----14-----|
B-------------------17-15-14h15----15-14h15----------------17----15\-|
G--------------------------------------------------------------------|
D--------------------------------------------------------------------|
A--------------------------------------------------------------------|
E--------------------------------------------------------------------|

E-/15-14-------------t22p17p15-14h15-17------15-14-------|
B--------17-15-14h15--------------------15---------17-15-|
G--------------------------------------------------------|
D--------------------------------------------------------|
A--------------------------------------------------------|
E--------------------------------------------------------|


Solo
E-21b22-20p19----------19-20-19-------------------------------|
B-------------22-20-22----------22-20-19----19-20-19----------|
G----------------------------------------21----------21-19-17-|
D-------------------------------------------------------------|
A-------------------------------------------------------------|
E-------------------------------------------------------------|

E---------------------------------------|
B---------------------------------------|
G-16h17p16\12/14/-12/-11/-9/-7/-5/-4/-2-|
D---------------------------------------|
A---------------------------------------|
E---------------------------------------|

E-----------------------------------------------|
B-----------------------------------------------|
G-------7---5---4-------------------------------|
D-0h5h7---0---0---0-5-0-7-0-4-5-0-7-5-0-4-0-2---|
A---------------------------------------------3-|
E-----------------------------------------------|

E-------------------------------------------------------------------------|
B-------------------------------------------------------------------------|
G----------------------------0h7h9-0h9h11-0h11h12-0h12h14-0h14h16-0h16h17-|
D-0h5h7-0h7h9-0h9h10-0h10h12----------------------------------------------|
A-------------------------------------------------------------------------|
E-------------------------------------------------------------------------|

E-------------------------------------0h5h7-0h7h9h10-9h10p9p7----|
B-------------------------------5h7h8-------------------------10-|
G-------------------------4h6h7----------------------------------|
D-------------2h4h5-4h5h7----------------------------------------|
A-------2h4h5----------------------------------------------------|
E-2h3h5----------------------------------------------------------|

E----------------------------------7-7-|
B-8-7-8-10-----------------------8-----|
G----------9b11r9b11r9p7-------7-------|
D------------------------9p7h9---------|
A--------------------------------------|
E--------------------------------------|

E-15p14p12-14-12----12-------12----------------------------------|
B----------------15----15b17----15-13-12-15h13h12----13p12-------|
G-------------------------------------------------14-------14-12-|
D----------------------------------------------------------------|
A----------------------------------------------------------------|
E----------------------------------------------------------------|

E--------------------------------------------------------------------------------|
B-15h17-17-17-17-15h17p15----/20-18-17----17----18-17-18-17-------18-17-18-17----|
G--------------------------------------19----17-------------19-17-------------19-|
D-------------------------17-----------------------------------------------------|
A--------------------------------------------------------------------------------|
E--------------------------------------------------------------------------------|

E----------------15-16-15-16-15--------16-15-18-15--------------16-18-19\-|
B-------15-17-18----------------18--16-------------18--17-18-20-----------|
G-15-17-------------------------------------------------------------------|
D-------------------------------------------------------------------------|
A-------------------------------------------------------------------------|
E-------------------------------------------------------------------------|

E-19p18-------19\--19p18-19-21-19\--19p18-------19--19p18----18-19-21-|
B-------21-19-----------------------------21-19-----------21----------|
G---------------------------------------------------------------------|
D---------------------------------------------------------------------|
A---------------------------------------------------------------------|
E---------------------------------------------------------------------|

E-22-21-19-22-21-19-22-21-19-22-21-24-22-21-19-22-21-19-22-21-19-------19-------|
B----------------------------------------------------------------20-22----20b22-|
G-------------------------------------------------------------------------------|
D-------------------------------------------------------------------------------|
A-------------------------------------------------------------------------------|
E-------------------------------------------------------------------------------|

E-------------------------------14-15-|
B-------------------------15-17-------|
G----------------14-16-18-------------|
D-17-16-14-16-17----------------------|
A-------------------------------------|
E-------------------------------------|


Chorus
E-17---17/19-15-17--15-14-14h15p14----------------17---t22p15-17-t22p15-14-|
B----------------------------------17-15-15-14h15--------------------------|
G--------------------------------------------------------------------------|
D--------------------------------------------------------------------------|
A--------------------------------------------------------------------------|
E--------------------------------------------------------------------------|

E-14h15-17-15p14-------------------17----------17-15-14----|
B----------------17-15-------14-15----15-14-15----------17-|
G----------------------14-16-------------------------------|
D----------------------------------------------------------|
A----------------------------------------------------------|
E----------------------------------------------------------|

E-15-15-14----------------------------------------------------------14-15-|
B----------17-15----17-17-15----------------------------------15-17-------|
G----------------14----------14----------------------14-16-18-------------|
D-------------------------------17-16-17-16-14-16-17----------------------|
A-------------------------------------------------------------------------|
E-------------------------------------------------------------------------|

E-17----------17b19-17-15-14---------15-14-------|
B----15-14-15----------------17-15---------17-15-|
G------------------------------------------------|
D------------------------------------------------|
A------------------------------------------------|
E------------------------------------------------|

Добавлено: 29.04.2012
Другие материалы по этой песне:
  • Аккорды и текст

Страница создана 29.04.2012
http://primanota.ru/daita/triumphal-return-chords.htm
Привет, Гость.
Предлагаем пройти революционный курс по гитаре.
Подарок от PrimaNota.Ru, забирай!