PrimaNota.ru - самый крупный в мире бесплатный архив песенных текстов, аккордов, табулатур и нот


Daita - Oriental Road - таба, видео

Регистрация Запомнить меня
Войти через:  Facebook Google Twitter Vk Yandex Mail.ru

Daita - Oriental Road - таба, видео

Печатать
Просмотров: 183
Уроки эстрадного вокала в Санкт-Петербурге
Artist: Daita
Title: Oriental Road


* Transcribed by: DASH (Eterna-lInfinity)
* Email: shagohod23@hotmail.com

------------------------------------------------------------------------------|
---------10b12-----------------------------10---------------------------------|
---7/9-7---------------7-6-7----7-9-11--11----9--11/7-6-----------------------|
-------------------2/4--------------------------------------------------------|
------------------------------------------------------------------------------|
------------------------------------------------------------------------------|


------------------------------------------------------------------------------|
------------------------------------------------------------------------------|
-------7-6-7--7-6----------------7-6-7---7-9-11----10-10-12-12-14-------------|
---2/4------------7/9-7-----2/4-----------------------------------------------|
------------------------------------------------------------------------------|
------------------------------------------------------------------------------|


----------------------------13-15------|-----22-21-22--22-21----------19-21---|
------15-14-v15-15-17-17b19-------17---|--19-----------------22-22b24---------|
---------------------------------------|--------------------------------------|
---16----------------------------------|--------------------------------------|
---------------------------------------|--------------------------------------|
---------------------------------------|--------------------------------------|


----------------22-21-22---22-21-22-22b24-22b24-21v------22-21-22--22-21------|
----21-------19---------------------------------------19-----------------19---|
------------------------------------------------------------------------------|
------------------------------------------------------------------------------|
------------------------------------------------------------------------------|
------------------------------------------------------------------------------|


------------------------------22-21-22--22-21-22-24b26-24b27-24v-22-21--|-----|
-22b24-22-19-22bb24-22----19--------------------------------------------|-----|
------------------------------------------------------------------------|-----|
------------------------------------------------------------------------|-----|
------------------------------------------------------------------------|-----|
------------------------------------------------------------------------|-----|


------------------------------------------------------------------------10----|
-----------------------10-12----------------------------10-10--12-10-10-10----|
-----9h11-9h11-9--9-11-------11v--9-11/7-6/4-/11--9h7-9-9--9---11-9--9--------|
------------------------------------------------------------------------------|
------------------------------------------------------------------------------|
------------------------------------------------------------------------------|


-9---|-------------9-10-12-10-12---------------------9-10-12-14-10------------|
-10--|-------10-12---------------20------------10-12--------------------------|
-----|----11------------------------11b-----11--------------------------------|
-----|------------------------------------------------------------------------|
-----|------------------------------------------------------------------------|
-----|------------------------------------------------------------------------|


---12h17p12h14---17h22p17h20--12h17p12h14--17h22p17h20-12h17p12h14------------|
------------------------------------------------------------------------------|
------------------------------------------------------------------------------|
------------------------------------------------------------------------------|
------------------------------------------------------------------------------|
------------------------------------------------------------------------------|


--9h12p9h10--7h10p7h9--5h9p5h7--5h7p5---------------------------|-------------|
--------------------------------------7-5-----------------------|-------------|
------------------------------------------5-4-5-5/7-5-4---------|-------------|
--------------------------------------------------------5/7-5---|-------------|
----------------------------------------------------------------|-------------|
----------------------------------------------------------------|-------------|


--------22-21-22-22-21-----------19-21---------22-21-22-22-21-22-22b24-24-22--|
----19-----------------22-22b24--------22---19--------------------------------|
------------------------------------------------------------------------------|
------------------------------------------------------------------------------|
------------------------------------------------------------------------------|
------------------------------------------------------------------------------|


----21--|---19----17--------19----17--------------17--------------------------|
--------|------19----19-17-----19----19-17--17h19----19p17-19--/14-14-15-17---|
--------|---------------------------------------------------------------------|
--------|---------------------------------------------------------------------|
--------|---------------------------------------------------------------------|
--------|---------------------------------------------------------------------|


-------------------------------7----------------------------------------------|
-17b-15-14h15p14---------10b12---10-7-----------------------------------------|
-----------------16-14----------------9-9b11-9-7------------------------------|
-------------------------------------------------9-7-9-------7-9-/12-9-7------|
---------------------------------------------------------7-9------------------|
------------------------------------------------------------------------------|


----------------------------------------------------------|-------------------|
---------------------10-10-10-12-12-12-14-14-14-15-15-17b-|----15-17-17b-17---|
-------7-9-/12-9-7-9--------------------------------------|-14----------------|
---7-9----------------------------------------------------|-------------------|
----------------------------------------------------------|-------------------|
----------------------------------------------------------|-------------------|


----17--15----15---15t20p13--12-13-12-----12-13-12----------------------------|
-15--------18-------------------------13-----------13----13-13h15--13---------|
------------------------------------------------------14--------------12-10---|
------------------------------------------------------------------------------|
------------------------------------------------------------------------------|
------------------------------------------------------------------------------|


--------------------------------------------------------------10--------------|
-----------------------------------------------------------------13-10-13b----|
-9-10p9--------------10----10-12-12b---------10----10-12-12b------------------|
--------12-----10-12----12-------------10-12----12----------------------------|
------------------------------------------------------------------------------|
------------------------------------------------------------------------------|


--10-12-13-12b-12--------------------12--10--8-6-5-6-8-10---------------------|
------------------13b-13------------------------------------------------------|
-------------------------12-12b------12--10--9-7-5-7-9-10---------------------|
---------------------------------------------------------------------9h10h12--|
-------------------------------------------------------------8h10h12----------|
------------------------------------------------------------------------------|


----------------------------------------------------13-0-0-0-15-0-0-0-17-0-0--|
-------------------------10h12h13-10h12h13-12h13h15---------------------------|
---------9h10h12-9h10h12------------------------------------------------------|
-9h10h12----------------------------------------------------------------------|
------------------------------------------------------------------------------|
------------------------------------------------------------------------------|


-0-18-|-20b-20-17----17-----------------------20b-20-17----17-----------------|
------|-----------20----20-18-20-17h18p17---------------20----20-18-20--------|
------|-----------------------------------18----------------------------------|
------|-----------------------------------------------------------------------|
------|-----------------------------------------------------------------------|
------|-----------------------------------------------------------------------|


---------------20b-20-17----17------------------------------------------------|
-17h18p17----------------20----20-18-17-18-20-17b-16-17b----17b---------------|
----------18---------------------------------------------17-----19------------|
------------------------------------------------------------------------------|
------------------------------------------------------------------------------|
------------------------------------------------------------------------------|


--20b-20-17----17----------------------20b-20-17----17------------------------|
------------20----20-18-20-17h18p17--------------20----20-18-28-17h18p17------|
------------------------------------18-----------------------------------18---|
------------------------------------------------------------------------------|
------------------------------------------------------------------------------|
------------------------------------------------------------------------------|


--20b-20-17----17-------------20-------------------------------------|--------|
------------20----20-18-17-18------17b-18--17-18-20-18-17------------|--------|
----------------------------------------------------------17---17-19-|--------|
-------------------------------------------------------------19------|--------|
---------------------------------------------------------------------|--------|
---------------------------------------------------------------------|--------|


-----------22-----------------------------------------------------------------|
-----20b22----20-18-20-20b22-------15-18-15----18-15----18-----20b22-22-22----|
--------------------------------17----------17-------17-----------------------|
------------------------------------------------------------------------------|
------------------------------------------------------------------------------|
------------------------------------------------------------------------------|


-------------------|----------------------------------------------------------|
-20-18-20-18-------|----------------------------------------------------------|
-------------19----|---5h7h5h7h5h7h5h7h5h7h7h10h7h10h7h10h7h10h10h12h10h12h---|
-------------------|----------------------------------------------------------|
-------------------|----------------------------------------------------------|
-------------------|----------------------------------------------------------|


------------------------------------------------------------------------------|
----------------------13h15h13h15h13h15h13h15h18h15h18h15h18h20h18h20h18h20---|
-10h12h14h12h14h12h14h--------------------------------------------------------|
------------------------------------------------------------------------------|
------------------------------------------------------------------------------|
------------------------------------------------------------------------------|


------------------------------------------------------------------------------|
----24b-24b-24-20----24-22-24b-24b-24b-20----24-22----22-20-22b-22-20-22b-22--|
------------------22----------------------22----------------------------------|
------------------------------------------------------------------------------|
------------------------------------------------------------------------------|
------------------------------------------------------------------------------|


------------------------------------------------------------------------------|
-20-22-24b-24-20-22----20-18-17-18-20-18-17-----------------------------------|
--------------------------------------------18-20-18-17-----------------------|
--------------------------------------------------------17----17-19v----------|
-----------------------------------------------------------19-----------------|
------------------------------------------------------------------------------|
Добавлено: 23.07.2012
Вам также может быть интересно:
Другие материалы по этой песне:
  • Аккорды и текст

Страница создана 23.07.2012
http://primanota.ru/daita/oriental-road-chords.htm
Привет, Гость.
Предлагаем пройти революционный курс по гитаре.
Подарок от PrimaNota.Ru, забирай!