PrimaNota.ru - самый крупный в мире бесплатный архив песенных текстов, аккордов, табулатур и нот


Daita - Ammersee - таба, видео

Регистрация Запомнить меня
Войти через:  Facebook Google Twitter Vk Yandex Mail.ru

Daita - Ammersee - таба, видео

Печатать
Просмотров: 155
Уроки эстрадного вокала в Санкт-Петербурге
Ammersee
Composition: Daita Itoh
Tabs: sergio1o3 (http://www.youtube.com/sergio1o3)

Symbols:
h  -  hammer on
p  -  pull off
b  -  bend string up
r  -  release bend
t  -  right hand tap
/  -  slide up
\  -  slide down
() -  harmonic



Intro
E----------------------10-------|---------------------------|
B---8-10-10b12r10p8-10----10b12-|---8-10-10b12r10p8-10-12-8-|
G-7-----------------------------|-7-------------------------|
D-------------------------------|---------------------------|
A-------------------------------|---------------------------|
E-------------------------------|---------------------------|

E-----------7-8-10---------|
B-7-8-10-10--------8-7-8-8-|
G--------------------------|
D--------------------------|
A--------------------------|
E--------------------------|

E-------14-14----14-15-------------------|-------14-14----14b15-|
B-------------15-------15b17-15-13\12----|-------------15-------|
G-14-16-------------------------------14-|-14-16----------------|
D----------------------------------------|----------------------|
A----------------------------------------|----------------------|
E----------------------------------------|----------------------|

E-------14-14----14-15-15b17-15b17-15-14----------------|
B----15-------15-------------------------17-15----------|
G-14-------------------------------------------14-11-12-|
D-------------------------------------------------------|
A-------------------------------------------------------|
E-------------------------------------------------------|

                                                          * -> vibrate down
E----------------------10-------|---------------------------|
B---8-10-10b12r10p8-10----10b12-|---8-10-10b12r10p8-10-12-8-|
G-7-----------------------------|-7-------------------------|
D-------------------------------|---------------------------|
A-------------------------------|---------------------------|
E-------------------------------|---------------------------|

                             * * * * -> Violin Effect. Do this rapidly in sequence:
E-----------7-8-10---------|---------|  Decrease volume, pick the 1st note, 
B-7-8-10-10--------8-7-8-8-|---------|  increase volume, mute the 1st note, 
G--------------------------|-9-7-5-4-|  decrease volume, pick the 2nd note, 
D--------------------------|---------|  increase volume, mute the 2nd note,
A--------------------------|---------|  decrease volume, and so on.
E--------------------------|---------|

E-------------14-14----14-15-------------------|----------------------------|
B----------15-------15-------15b17-15-13\12----|----------------15-15-------|
G-------14----------------------------------14-|-14b16-14/16-17-------12-12-|
D-16-17----------------------------------------|----------------------------|
A----------------------------------------------|----------------------------|
E----------------------------------------------|----------------------------|

E----------|-------------14-14----14-15-17-19-19b20r19-17-15-14-|
B----------|-------------------15-------------------------------|
G-12-11----|----------14----------------------------------------|
D-------12-|----16h17-------------------------------------------|
A----------|-14-------------------------------------------------|
E----------|----------------------------------------------------|

E-14-15-14b15-|
B-------------|
G-------------|
D-------------|
A-------------|
E-------------|

Solo
E---5-7-/15-14-------------------|-----------0h10h12h14-15-14h15r14-12----|
B-5------------12----12-12/15\12-|-0h8h10h12---------------------------15-|
G-----------------14-------------|----------------------------------------|
D--------------------------------|----------------------------------------|
A--------------------------------|----------------------------------------|
E--------------------------------|----------------------------------------|

E----------------------------------------------------------|
B-12h17----12-12h17p12-12h17p12----12-10h12p10\7-----------|
G-------14----------------------14---------------9-7h9p7---|
D--------------------------------------------------------9-|
A----------------------------------------------------------|
E----------------------------------------------------------|

  *------ bend these notes as necessary ------*
E-----------------------------------------------|
B-------------------------------5-7-8-7h8-7p5-7-|
G-------------------4-5---4-5-7-----------------|
D-------------2-4-5-----7-----------------------|
A-2-3-0-2-3-5-----------------------------------|
E-----------------------------------------------|

E-------------------12-11-15-14-17-15-17b19-17b19-|
B-------------13-12-------------------------------|
G-------12-11-------------------------------------|
D-14-13-------------------------------------------|
A-------------------------------------------------|
E-------------------------------------------------|

E-17b19-17b19-17b19-19r17-15-17-17b19-15----17-17b19-|
B----------------------------------------17----------|
G----------------------------------------------------|
D----------------------------------------------------|
A----------------------------------------------------|
E----------------------------------------------------|

E-------19-------17-------15-------14------12-----10-0h5h7h8-8p7p5-----|
B-15h17----13h15----12h13----10h12----8h10----7h8------------------8-7-|
G----------------------------------------------------------------------|
D----------------------------------------------------------------------|
A----------------------------------------------------------------------|
E----------------------------------------------------------------------|

                                   * bend these notes as necessary *
E--------------------------------|-----------------------------------|
B-0h8h10h12-10h12p10p8\7---------|-------------------------5-7-8-7h8-|
G------------------------9-7h9---|-------------------4-5-7-----------|
D------------------------------9-|-----------2-4-5-7-----------------|
A--------------------------------|-----2-3-5-------------------------|
E--------------------------------|-3-5-------------------------------|

  * ------- bend these notes as necessary -------- *
E-------------------------------------------------15-|
B----------------------------------------12-13-15----|
G-------------------------------11-12-14-------------|
D--------------------9-10-12-14----------------------|
A----------7-9-10-12---------------------------------|
E-5-7-8-10-------------------------------------------|

E-15b17-15b17-15b17-15b17-17r15----20b22-22r20-19-17-19-------------|
B-------------------------------15----------------------20-19h20-20-|
G-------------------------------------------------------------------|
D-------------------------------------------------------------------|
A-------------------------------------------------------------------|
E-------------------------------------------------------------------|

E----------------|
B-15-13p12h13-22-|
G----------------|
D----------------|
A----------------|
E----------------|

E-t15p10p8-t15p8--------------------------------------------------|
B----------------h10-t15p10p8-t15p8-------------------------------|
G-----------------------------------h9-t14p9p7-t12p7--------------|
D----------------------------------------------------h9-t12p9p7\5-|
A-----------------------------------------------------------------|
E-----------------------------------------------------------------|

E-------------------|
B-------------------|
G-------------7-8-9-|
D-------5h7/9-------|
A-7p5h7-------------|
E-------------------|

E----------------------------------|
B-------------------------12h13h15-|
G----------------11h12h14----------|
D--------9h10h12-------------------|
A-7h9h10---------------------------|
E----------------------------------|

E-15-14-12-------17-15-14-------19-17-15-------20-19-17-------20b22----|
B----------15-13----------17-15----------19-17----------20-19-------20-|
G----------------------------------------------------------------------|
D----------------------------------------------------------------------|
A----------------------------------------------------------------------|
E----------------------------------------------------------------------|

E-----------------------20b22----------------|
B--------------17-19-20-------20-20-19-20-20-|
G-----16-17-19-------------------------------|
D-/17----------------------------------------|
A--------------------------------------------|
E--------------------------------------------|


Outro (All in Violin Effect)
E-19-14-10-7-3-------------|
B--------------5-3---------|
G------------------4-5-2-0-|
D--------------------------|
A--------------------------|
E--------------------------|

Добавлено: 18.05.2012
Другие материалы по этой песне:

Страница создана 18.05.2012
http://primanota.ru/daita/ammersee-chords.htm
Привет, Гость.
Предлагаем пройти революционный курс по гитаре.
Подарок от PrimaNota.Ru, забирай!