PrimaNota.ru - самый крупный в мире бесплатный архив песенных текстов, аккордов, табулатур и нот


Daisuke Ishiwatari - The Road To Hope - Staff Roll A - таба, видео

Регистрация Запомнить меня
Войти через:  Facebook Google Twitter Vk Yandex Mail.ru

Daisuke Ishiwatari - The Road To Hope - Staff Roll A - таба, видео

Печатать
Просмотров: 112
           /                                                \
          /   Daisuke Ishiwatari - Road to Hope (BlazBlue)   \
         /                                                    \
        /                   Tabbed By: Jun                     \
       /   a.k.a. Redoubt9000 (YouTube) (DustLoop) (OCRemix)    \     
      /                       Night (UG)                         \
     /____________________________________________________________\




| /  slide up
| \  slide down
| h  hammer-on
| p  pull-off
| ~  vibrato
| +  harmonic
| x  Mute note

Standard Tuning

Intro (Lead)

e|----------------------------------------------------------|
B|----------------------------------------------------------|
G|-/9-8h9---------11-11~---9h11-----------------------------|
D|--------9---------------------10--/9-7-6------------------|
A|----------7--9--------------------------------------------|
E|----------------------------------------------------------|

e|-------------------------------------------------------|
B|------------------------------------/9-9^10r9v---15+^--|
G|-------8-9-8h9-------11-11~--9h11-11------------(19+^)-|
D|-6-7-9---------9---------------------------------------|
A|-----------------7-9-----------------------------------|
E|-------------------------------------------------------|



(Rhythm)

e|----------------------------|
B|----------------------------|
G|-11-----9-----11-----11--9--|
D|-x------7-----9------x---x--|  Best I could come up with XP
A|-7-------------------7---7--|
E|----------------------------|



Verse 1 (Lead)

e|-----------------------------------------|
B|-------------12p0-10p0-9p0-7---7---7/9~--|
G|----8-9-8--------------------9---9-------|
D|-/9-------9------------------------------|
A|-----------------------------------------|
E|-----------------------------------------|

e|-------------------------------------------|
B|-7-9-10-----------------------8-7----------|
G|--------9~-9-9p6-6h9~-----6-9-----9--------|
D|------------------------------------10-9~--|
A|-------------------------------------------|
E|-------------------------------------------|

e|---------------------------------------|
B|-------------12p0-10p0-9p0-7------7/9--|
G|----9-9-8--------------------9-8-9-----|
D|-/9-------9----------------------------|
A|---------------------------------------|
E|---------------------------------------|

e|--------------------------------------------|
B|-7-9-10-----------------------8-7-------7~--|
G|--------9~-9-9p6-6h9~-----6-9-------6-9-----|
D|--------------------------------------------|
A|--------------------------------------------|
E|--------------------------------------------|

e|----------------------------------------------------------------7---------------7/9-7~--|
B|-----7~--------10p0-9p0-------------------------------------------9---9-10-9-10---------|
G|-8-9-----6-8-9-----------/6-/9-8~------8-6--------------------9-------------------------|
D|-------------------------------------------9-7~---7-6-7-----9---------------------------|
A|--------------------------------------------------------7-7-----------------------------|
E|----------------------------------------------------------------------------------------|



Verse 2 (Lead)

e|-----14-12-------14--12-14--/16-17--16--12~--|
B|-/12----------12-----------------------------|
G|---------------------------------------------|
D|---------------------------------------------|
A|---------------------------------------------|
E|---------------------------------------------|

e|----12-----------------------7~--------------------|
B|-12----12------------------9-----10~-9~----7---7~--|
G|----------9---9-8-9------9-------------------9-----|
D|-----------------------9---------------------------|
A|---------------------------------------------------|
E|---------------------------------------------------|

e|-----14-12-------14--12-14--/16-17--12--11h12~--|
B|-/12----------12--------------------------------|
G|------------------------------------------------|
D|------------------------------------------------|
A|------------------------------------------------|
E|------------------------------------------------|

e|----------------------------12-11------------------------------------------------|
B|-/12--10-12-------------9---------9~---------------10-9-----------10--10/12-12~--|
G|------------11~---9-11--------------------/9-8-9---------/9-8-9------------------|
D|-------------------------------------------------9--------------9----------------|
A|---------------------------------------------------------------------------------|
E|---------------------------------------------------------------------------------|



Verse 3 (Lead)

e|-12--11-12-----11~---11-9----9------9-----11-12-------|
B|------------12------------12-----12-------------10~---|
G|------------------------------------------------------|
D|------------------------------------------------------|
A|------------------------------------------------------|
E|------------------------------------------------------|

e|---------------------7/9-11-12-9-11-12-14-16-17---19p17p16 (x4)--19^21r19-19~--17~--|
B|-10-9-7-------7-9-10----------------------------------------------------------------|
G|--------9-8-9-----------------------------------------------------------------------|
D|------------------------------------------------------------------------------------|
A|------------------------------------------------------------------------------------|
E|------------------------------------------------------------------------------------|



Verse 4 (Lead)

e|--------------9---12-11-12~--11--9--------------7/9-----|
B|-12--10-9-10------------------------12-9-12-12~-----9~--|
G|--------------------------------------------------------|
D|--------------------------------------------------------|
A|--------------------------------------------------------|
E|--------------------------------------------------------|

e|--------------9---12-11-12~--11-12-14--14/16--14-12--11-12---/19~-----12~--|
B|-12--10-9-10---------------------------------------------------------------|
G|---------------------------------------------------------------------------|
D|---------------------------------------------------------------------------|
A|---------------------------------------------------------------------------|
E|---------------------------------------------------------------------------|




Bridge (Rhythm)
e|----------------------|
B|----------------------|
G|-4-----6-----------4--|
D|-2-----4-----4-----2--|  
A|-2-----4-----2-----2--|
E|----------------------|


e|----------------------------|
B|----------------------------|
G|-11-----9-----11-----11--9--|
D|-x------7-----9------x---x--|  
A|-7-------------------7---7--|
E|----------------------------|



Verse 1 (Lead)

e|-----------------------------------------|
B|-------------12p0-10p0-9p0-7---7---7/9~--|
G|----8-9-8--------------------9---9-------|
D|-/9-------9------------------------------|
A|-----------------------------------------|
E|-----------------------------------------|

e|-------------------------------------------|
B|-7-9-10-----------------------8-7----------|
G|--------9~-9-9p6-6h9~-----6-9-----9--------|
D|------------------------------------10-9~--|
A|-------------------------------------------|
E|-------------------------------------------|

e|---------------------------------------|
B|-------------12p0-10p0-9p0-7------7/9--|
G|----9-9-8--------------------9-8-9-----|
D|-/9-------9----------------------------|
A|---------------------------------------|
E|---------------------------------------|

e|--------------------------------------------|
B|-7-9-10-----------------------8-7-------7~--|
G|--------9~-9-9p6-6h9~-----6-9-------6-9-----|
D|--------------------------------------------|
A|--------------------------------------------|
E|--------------------------------------------|

e|----------------------------------------------------------------7---------------7/9-7~--|
B|-----7~--------10p0-9p0-------------------------------------------9---9-10-9-10---------|
G|-8-9-----6-8-9-----------/6-/9-8~------8-6--------------------9-------------------------|
D|-------------------------------------------9-7~---7-6-7-----9---------------------------|
A|--------------------------------------------------------7-7-----------------------------|
E|----------------------------------------------------------------------------------------|



Verse 2 (Lead)

e|-----14-12-------14--12-14--/16-17--16--12~--|
B|-/12----------12-----------------------------|
G|---------------------------------------------|
D|---------------------------------------------|
A|---------------------------------------------|
E|---------------------------------------------|

e|----12-----------------------7~--------------------|
B|-12----12------------------9-----10~-9~----7---7~--|
G|----------9---9-8-9------9-------------------9-----|
D|-----------------------9---------------------------|
A|---------------------------------------------------|
E|---------------------------------------------------|

e|-----14-12-------14--12-14--/16-17--12--11h12~--|
B|-/12----------12--------------------------------|
G|------------------------------------------------|
D|------------------------------------------------|
A|------------------------------------------------|
E|------------------------------------------------|

e|----------------------------12-11------------------------------------------------|
B|-/12--10-12-------------9---------9~---------------10-9-----------10--10/12-12~--|
G|------------11~---9-11--------------------/9-8-9---------/9-8-9------------------|
D|-------------------------------------------------9--------------9----------------|
A|---------------------------------------------------------------------------------|
E|---------------------------------------------------------------------------------|
Добавлено: 26.09.2013
Другие материалы по этой песне:
  • Аккорды и текст

Страница создана 26.09.2013
http://primanota.ru/daisuke-ishiwatari/the-road-to-hope-staff-roll-a-chords.htm
Привет, Гость.
Предлагаем пройти революционный курс по гитаре.
Подарок от PrimaNota.Ru, забирай!