PrimaNota.ru - самый крупный в мире бесплатный архив песенных текстов, аккордов, табулатур и нот


Daisuke Ishiwatari - No Mercy - таба, видео

Регистрация Запомнить меня
Войти через:  Facebook Google Twitter Vk Yandex Mail.ru

Daisuke Ishiwatari - No Mercy - таба, видео

Печатать
Просмотров: 156
No Mercy (Sol-Badguy vs Ky Kiske EX)
From Guilty Gear X+ and all console versions of XX
Song attributed to Daisuke Ishiwatari
Tabbed by Stefan H
Contact: stef_hitchhiker42 (at) yahoo (dot) ca for corrections/suggestions


Gtr 1 (E A D G B E) - 1st Rhythm w/ (Fuzzy) Distortion
Gtr 2 (E A D G B E) - 2nd Rhythm w/ Distortion
Gtr 3 (E A D G B E) - Lead w/ Distortion


     mm = 192


     Gtr 1

    E   S S S S S S S S S S S S S S  E   S S S S S S S S S S S S S S
||---------------------------------|--------------------------------|
||---------------------------------|--------------------------------|
||o--------------------------------|--------------------------------|
||o--------------------------------|--------------------------------|
||--2------------------------------|-2------------------------------|
||--0---0-5-0-3-0-0-2-0-3-0-0-3-0-2|-0---0-5-0-3-0-0-2-2-3-0-0-3-0-2|
       PM  PM  PM..  PM  PM..  PM       PM  PM  PM..      PM..  PM

                                   1.______________________________
  E   S S S S S S S S S S S S S S  E   S S S S S S S e   S S S S S |
|--------------------------------|---------------------------------||
|--------------------------------|---------------------------------||
|--------------------------------|--------------------------------o||
|-5------------------------------|-2---2-2-2-2-2-2-4-----4-4-4-4-4o||
|-3---3--------------------------|-0---0-0-0-0-0-0-2-----2-2-2-2-2-||
|-------5-0-3-0-0-2-0-3-0-0-3-0-2|---------------------------------||
     PM  PM  PM..  PM  PM..  PM

  2._____________________________
  E   S S s S S S E   S S S S E   +W
|--------------------------------|--------------------------------|
|--------------------------------|--------------------------------|
|---------------------N----------|--------------------------------|
|-2---2-2---2-2-2-4--[4]4-4-9\8--|(8)-----------------------------|
|-0---0-0---0-0-0-2---2-2-2-7\6--|(6)-----------------------------|
|--------------------------------|--------------------------------|

       Gtr 1
|| 
||     E   S S S S S S S S S S S S S S  E   S S S S S S S S S S S S S S
||-||---------------------------------|--------------------------------|
||-||---------------------------------|--------------------------------|
||o||o--------------------------------|--------------------------------|
||o||o--------------------------------|--------------------------------|
||-||--2------------------------------|-2------------------------------|
||-||--0---0-5-0-3-0-0-2-0-3-0-0-3-0-2|-0---0-5-0-3-0-0-2-2-3-0-0-3-0-2|
|| ||     PM  PM  PM..  PM  PM..  PM       PM  PM  PM..      PM..  PM
|| ||
|| ||  Gtr 2
|| ||
|| ||  E   S S S S S S S S S S S S S S  E   S S S S S S S S S S S S S S
||-||---------------------------------|--------------------------------|
||-||---------------------------------|--------------------------------|
||o||o--------------------------------|--------------------------------|
||o||o--------------------------------|--------------------------------|
||-||--2------------------------------|-2------------------------------|
||-||--0---0-0-0-0-0-0-0-0-0-0-0-0-0-0|-0---0-0-0-0-0-0-0-0-0-0-0-0-0-0|
          PM..........................     PM..........................

                                   1.______________________________
  E   S S S S S S S S S S S S S S  E   S S S S S S E   S S S S S S |
|--------------------------------|---------------------------------||
|--------------------------------|---------------------------------||
|--------------------------------|---------------------N----------o||
|-5------------------------------|-2---2-2-2-2-2-2-4--[4]4-4-4-4-4o||
|-3---3--------------------------|-0---0-0-0-0-0-0-2---2-2-2-2-2-2-||
|-------5-0-3-0-0-2-0-3-0-0-3-0-2|---------------------------------||
|    PM  PM  PM..  PM  PM..  PM
|
|                                  1.______________________________
| E   S S S S S S S S S S S S S S  E   S S S S S S E   S S S S S S |
|--------------------------------|---------------------------------||
|--------------------------------|---------------------------------||
|--------------------------------|--------------------------------o||
|-5------------------------------|-2---------------4--------------o||
|-3---3-3-3-3-3-3-3-3-3-3-3-3-3-3|-0---0-0-0-0-0-0-2---2-2-2-2-2-2-||
|--------------------------------|---------------------------------||
     PM..........................     PM..........    PM..........

  Gtr 3
  
                                  a   Q      +Q      +Q      +Q        
|--------------------------------|-----------------------------------|
|--------------------------------|-----------------------------------|
|--------------------------------|9pb12-----r11-----r10------r9-----\|
|--------------------------------|-----------------------------------|
|--------------------------------|-----------------------------------|
|--------------------------------|-----------------------------------|
|
| 2._____________________________
| E   S S s S S S E   S S s S S S     H               h
|--------------------------------|-----------------------------------|
|--------------------------------|-----------------------------------|
|--------------------------------|-----------------------------------|
|-2---2-2---2-2-2-4---4-4---4-4-4|----5------------------------------|
|-0---0-0---0-0-0-2---2-2---2-2-2|----3------------------------------|
|--------------------------------|-----------------------------------|
|
| 2._____________________________
| E   S S S S S S E   S S S S S S     H               h
|--------------------------------|-----------------------------------|
|--------------------------------|-----------------------------------|
|--------------------------------|-----------------------------------|
|-2---------------4--------------|----5------------------------------|
|-0---0-0-0-0-0-0-2---2-2-2-2-2-2|----3------------------------------|
|--------------------------------|-----------------------------------|
     PM..........    PM..........


   Q      +S   S  S  S  Q.         +S   S  Q.          S  S  E   S  S  a  Q       
|/12-----(12)-15p12-12-------------------|12-------------------------------------|
|----------------------15---------(15)-13|------------15-13-12-----13-13b15------|
|----------------------------------------|----------------------14---------------|
|----------------------------------------|---------------------------------------|
|----------------------------------------|---------------------------------------|
|----------------------------------------|---------------------------------------|
|
|  Gtrs 1,2
|
|  E   S S S   S  S  S  E   S S S S S   S  E   S S S S S  S  E   S  S     S S S S
|----------------------------------------|---------------------------------------|
|----------------------------------------|---------------------------------------|
|----------------------------------------|---------------------------------------|
|--2--------------------2----------------|-2-----------------2-------------------|
|--0---0-0-0---0--0--0--0---0-0-0-0-0---0|-0---0-0-0-0-0--0--0---0--0-----0-0-0-0|
|----------------------------------------|---------------------------------------|
      PM..............     PM............     PM...........     PM...............


  +E    s S  S  S  S  S  a  Q.          S  S  Q.          S  S  E   S  S  E   E   
|-----------------------14b15----------14-12|------------------------------------|
|(15)-------12-13-15-13---------------------|15----------13-12-----12------------|
|--------14---------------------------------|------------------14-----14-13------|
|-------------------------------------------|--------------------------------14--|
|-------------------------------------------|------------------------------------|
|-------------------------------------------|------------------------------------|
|
|  E    S S  S  S  S  S     E   S S S S S  S  E   S S S S S  S  E   S  S  S S S S
|-------------------------------------------|------------------------------------|
|-------------------------------------------|------------------------------------|
|-------------------------------------------|------------------------------------|
|--2------------------------2---------------|-2-----------------2----------------|
|--0----0-0--0--0--0--0-----0---0-0-0-0-0--0|-0---0-0-0-0-0--0--0---0--0--0-0-0-0|
|-------------------------------------------|------------------------------------|
       PM..............        PM...........     PM...........     PM............


   Q      +S  S S S  Q.         +S  S   Q.          S  S  E   S  S  a  Q       
|------------12p0-8-10---------(10)-8|/12-----------8-------------------------|
|------------------------------------|----------------13-12--10-13-13b15------|
|/14-----(14)------------------------|----------------------------------------|
|------------------------------------|----------------------------------------|
|------------------------------------|----------------------------------------|
|------------------------------------|----------------------------------------|
|
|  Gtr 1
|
|  E.    Q       +S  Q       e   E      E   S S S S S  S  Q.               E  
|------------------------------------|----------------------------------------|
|------------------------------------|----------------------------------------|
|------------------------------------|----------------------------------------|
|--2-----2-------(2)-5---------------|----------------------------------------|
|--0-----0-------(0)-3---------------|--5---5-5-5-5-5--5--3-------------------|
|-------------------------------12--\|--3---3-3-3-3-3--3--1---------------12-\|
|                                          PM...........
|  Gtr 2
|
|  H                 H                  H                 H                 
|------------------------------------|----------------------------------------|
|------------------------------------|----------------------------------------|
|------------------------------------|----------------------------------------|
|--2-----------------5---------------|----------------------------------------|
|--0-----------------3---------------|--5-----------------3-------------------|
|------------------------------------|--3-----------------1-------------------|


  +E   S  S  S  S  S  S  Q.          S  S  Q.          S  S  E   S  S  E.    S 
|----------------------/15----------14-12|14----------12--------------12------|
|r13--------12-13-15-13------------------|---------------15-13--13-15-------12|
|--------14------------------------------|------------------------------------|
|-----14---------------------------------|------------------------------------|
|----------------------------------------|------------------------------------|
|----------------------------------------|------------------------------------|
|
|  Q.              E     Q.          E     E   S S S S S  S  Q.            E  
|----------------------------------------|------------------------------------|
|----------------------------------------|------------------------------------|
|----------------------------------------|------------------------------------|
|----------------------------------------|------------------------------------|
|--7--------------------10---------------|-5---5-5-5-5-5--5--3----------------|
|--5--------------12--\--8----------12--\|-3---3-3-3-3-3--3--1------------12-\|
|                                             PM...........
|
|  H                     H                 H                 H              
|----------------------------------------|------------------------------------|
|----------------------------------------|------------------------------------|
|----------------------------------------|------------------------------------|
|--2---------------------5---------------|------------------------------------|
|--0---------------------3---------------|-5-----------------3----------------|
|----------------------------------------|-3-----------------1----------------|


  E   S  S S  S  S S  S  S S  S  S S  S  S  E   S  S S  S  S S  S  S S  S  S S  S  S 
|-0--12----0-12----0-10----0-10----0-10---|----15-12p0-15-12p0-13-10p0-13-10p0-15-13-|
|-------13------13------12------12------13|12----------------------------------------|
|-----------------------------------------|------------------------------------------|
|-----------------------------------------|------------------------------------------|
|-----------------------------------------|------------------------------------------|
|-----------------------------------------|------------------------------------------|
|
| H                   H                     e.     H                    Q         +S
|-----------------------------------------|------------------------------------------|
|-----------------------------------------|------------------------------------------|
|-----------------------------------------|------------------------------------------|
|-2-------------------5-------------------|--------5--------------------7---------(7)|
|-0-------------------3-------------------|--------3--------------------5---------(5)|
|-----------------------------------------|------------------------------------------|
|
| H                   H                     H                   H               
|-----------------------------------------|------------------------------------------|
|-----------------------------------------|------------------------------------------|
|-----------------------------------------|------------------------------------------|
|-2-------------------5-------------------|------------------------------------------|
|-0-------------------3-------------------|-3-------------------5--------------------|
|-----------------------------------------|-1-------------------3--------------------|


  E   S  S S  S  S S  S  S S  S  S S  S  S   a  H.                     +E        
|12----------------------------------------|16b18---------------------(18)r16-\|
|----13----0-13----0-11----0-11----0-11----|-----------------------------------|
|-------14------14------12------12------12-|-----------------------------------|
|------------------------------------------|-----------------------------------|
|------------------------------------------|-----------------------------------|
|------------------------------------------|-----------------------------------|
|
| e.     H                    Q         +S      H               E   S E   S S S
|------------------------------------------|-----------------------------------|
|------------------------------------------|-----------------------------------|
|------------------------------------------|-----------------------------------|
|--------3--------------------5---------(5)|----8-----------\------------------|
|--------1--------------------3---------(3)|----6-----------\------------------|
|------------------------------------------|--------------------4---0-4---4-6-8|
|
| H                   H                         W                              
|------------------------------------------|-----------------------------------|
|------------------------------------------|-----------------------------------|
|------------------------------------------|-----------------------------------|
|-3-------------------5--------------------|----8------------------------------|
|-1-------------------3--------------------|----6------------------------------|
|------------------------------------------|-----------------------------------|


||      Q      +S   S  S  S  a  Q.          S  S  a  Q.          S  S  Q.          S  S 
||-||--------------------17-17b18----------20-22|22b24----------22-20-------------17-19|
||-||-/15-----(15)-18p15------------------------|---------------------17~~~~~~~~~~-----|
||o||o------------------------------------------|--------------------------------------|
||o||o------------------------------------------|--------------------------------------|
||-||-------------------------------------------|--------------------------------------|
||-||-------------------------------------------|--------------------------------------|
|| ||
|| ||   E   S S S   S  S  S     E   S S S S S  S     E   S S S S S  S  E   S S S S S  S
||-||-------------------------------------------|--------------------------------------|
||-||-------------------------------------------|--------------------------------------|
||o||o------------------------------------------|--------------------------------------|
||o||o--7---7-7-7---7--7--7-----3---3-3-3-3-3--3|----5---5-5-5-5-5--5------------------|
||-||---5---5-5-5---5--5--5-----1---1-1-1-1-1--1|----3---3-3-3-3-3--3--3---3-3-3-3-3--3|
||-||-------------------------------------------|----------------------1---1-1-1-1-1--1|
|| ||      PM..............        PM...........        PM...........     PM...........
|| ||
|| ||   E   S S S   S  S  S     E   S S S S S  S     E   S S S S S  S  E   S S S S S  S
||-||-------------------------------------------|--------------------------------------|
||-||-------------------------------------------|--------------------------------------|
||o||o------------------------------------------|--------------------------------------|
||o||o--7---7-7-7---7--7--7-----3---3-3-3-3-3--3|----5---5-5-5-5-5--5------------------|
||-||---5---5-5-5---5--5--5-----1---1-1-1-1-1--1|----3---3-3-3-3-3--3--3---3-3-3-3-3--3|
||-||-------------------------------------------|----------------------1---1-1-1-1-1--1|
           PM..............        PM...........        PM...........     PM...........

                                                                             
  a  Q.       a  S    +S  H                w                                  ||*
|19b20-------19b20---r19-17--------------|---------------------------------||-||
|----------------------------------------|---------------------------------||-||
|----------------------------------------|--------------------------------o||o||
|----------------------------------------|--------------------------------o||o||
|----------------------------------------|---------------------------------||-||
|----------------------------------------|---------------------------------||-||
|
|    E   S S S S S     S  E   S S S S S S  E   S S S S s S E   S S S S s S
|----------------------------------------|---------------------------------||-||
|----------------------------------------|---------------------------------||-||
|----------------------------------------|-2-----2-4-5---5-----------2---4o||o||
|----------------------------------------|-----2-----------5---2-5-2------o||o||
|----4---4-4-4-4-4-----4--5---5-5-5-5-5-5|---------------------------------||-||
|----2---2-2-2-2-2-----2--3---3-3-3-3-3-3|---------------------------------||-||
|       PM..............     PM..........
|
|    E   S S S S S     S  E   S S S S S S  E   S S S S S S E   S S S S S S        
|----------------------------------------|---------------------------------||-||
|----------------------------------------|---------------------------------||-||
|----------------------------------------|--------------------------------o||o||
|----------------------------------------|--------------------------------o||o||
|----4---4-4-4-4-4-----4--5---5-5-5-5-5-5|-3---3-3-3-3-3-3-5---5-5-5-5-5-5-||-||
|----2---2-2-2-2-2-----2--3---3-3-3-3-3-3|-1---1-1-1-1-1-1-3---3-3-3-3-3-3-||-||
        PM..............     PM..........  


  a  W                                +E   h.                      e                            
|22b24------------------------------|r22-\----------------------------|
|-----------------------------------|---------------------------------|
|-----------------------------------|---------------------------------|
|-----------------------------------|---------------------------------|
|-----------------------------------|---------------------------------|
|-----------------------------------|---------------------------------|
|
|    E   S S S S S S S S S S S S S S   E   S S S S S S S S S S S S S S
|-----------------------------------|---------------------------------|
|-----------------------------------|---------------------------------|
|-----------------------------------|---------------------------------|
|-----------------------------------|---------------------------------|
|----2------------------------------|--2------------------------------|
|----0---0-5-0-3-0-0-2-0-3-0-0-3-0-2|--0---0-5-0-3-0-0-2-2-3-0-0-3-0-2|
|       PM  PM  PM..  PM  PM..  PM        PM  PM  PM..      PM..  PM
|
|    E   S S S S S S S S S S S S S S   E   S S S S S S S S S S S S S S
|-----------------------------------|---------------------------------|
|-----------------------------------|---------------------------------|
|-----------------------------------|---------------------------------|
|-----------------------------------|---------------------------------|
|----2------------------------------|--2------------------------------|
|----0---0-0-0-0-0-0-0-0-0-0-0-0-0-0|--0---0-0-0-0-0-0-0-0-0-0-0-0-0-0|
        PM..........................      PM..........................


                                   1.______________________________
  E   S S S S S S S S S S S S S S  E   S S s S S S E   S S S S S S |
|--------------------------------|---------------------------------||
|--------------------------------|---------------------------------||
|--------------------------------|---------------------N----------o||
|-5------------------------------|-2---2-2---2-2-2-4--[4]4-4-4-4-4o||
|-3---3--------------------------|-0---0-0---0-0-0-2---2-2-2-2-2-2-||
|-------5-0-3-0-0-2-0-3-0-0-3-0-2|---------------------------------||
|    PM  PM  PM..  PM  PM..  PM
|
|                                  1.______________________________                     
| E   S S S S S S S S S S S S S S  E   S S S S S S E   S S S S S S |
|--------------------------------|---------------------------------||
|--------------------------------|---------------------------------||
|--------------------------------|--------------------------------o||
|-5------------------------------|-2---------------4--------------o||
|-3---3-3-3-3-3-3-3-3-3-3-3-3-3-3|-0---0-0-0-0-0-0-2---2-2-2-2-2-2-||
|--------------------------------|---------------------------------||
     PM..........................     PM..........    PM..........


  2._____________________________ 
  E   S S s S S S E   S S S S S S  S e.    h.                     
|--------------------------------|--------------------------------||
|--------------------------------|--------------------------------||
|--------------------------------|--------------------------------||
|-2---2-2---2-2-2-4---4-4-4-4-4-4|--------------------------------||
|-0---0-0---0-0-0-2---2-2-2-2-2-2|-2------------------------------||
|--------------------------------|-0------------------------------||
|
| 2._____________________________
| E   S S S S S S E   S S S S S S  S e.    h.                     
|--------------------------------|--------------------------------||
|--------------------------------|--------------------------------||
|--------------------------------|--------------------------------||
|-2---------------4--------------|--------------------------------||
|-0---0-0-0-0-0-0-2---2-2-2-2-2-2|-2------------------------------||
|--------------------------------|-0------------------------------||
     PM..........    PM..........




*Ignore these the first time through.

==========================================================================

Rhythmic notation:
T/t     = thirty-second note/rest (1/2 sixteenth note/rest)
S/s     = sixteenth note/rest
E/e     = eighth note/rest
Q/q     = quarter note/rest
H/h     = half note/rest
W/w     = whole note/rest
X./x.   = dotted "x" note/rest (3/2 rhythmic value of un-dotted note/rest)
+       = tie note => keep holding the note
/-##-\  = ##-tuplet (triplet, quadruplet, etc.)
a       = grace note ("appoggiatura")

Fingering notation:
##b&&   = bend note from ## to && (&& > ##)
&&pb##  = pre-bend note to && and release to ## (&& > ##)
h       = hammer-on
p       = pull-off
tr      = tremolo strum
~       = finger vibrato
V       = whammy bar "vibrato"
x       = muted fret (LH mute)
[##]    = harmonic -> N = Natural
                      S = Semi
                      P = Pitch
                      A = Artificial
                      T = Tapped
(##)/&& = slide up (from ##) to &&
(&&)\## = slide down (from &&) to ##
##/     = slide up from ## to "off" (usually around where fretboard meets body)
##\     = slide down from ## to "off" (usually around nut)
(##)    = tie note => keep holding the note
PM...   = palm mute (starting from "PM" until last period)
Добавлено: 26.02.2012
Другие материалы по этой песне:

Страница создана 26.02.2012
http://primanota.ru/daisuke-ishiwatari/no-mercy-chords.htm
Привет, Гость.
Предлагаем пройти революционный курс по гитаре.
Подарок от PrimaNota.Ru, забирай!